ISO-10303-21;
HEADER;
/* Generated by software containing ST-Developer
 * from STEP Tools, Inc. (www.steptools.com) 
 */
/* OPTION: using custom schema-name function */

FILE_DESCRIPTION(
/* description */ ('VariCAD 2015-2.06 AP-214'),
/* implementation_level */ '2;1');

FILE_NAME(
/* name */ '0393-27-10.stp',
/* time_stamp */ '2016-05-11T14:26:00-06:00',
/* author */ (''),
/* organization */ (''),
/* preprocessor_version */ 'ST-DEVELOPER v14',
/* originating_system */ 'VariCAD 2015-2.06; kernel version (20130303)',

/* authorisation */ '');

FILE_SCHEMA (('AUTOMOTIVE_DESIGN'));
ENDSEC;

DATA;
#10=MECHANICAL_DESIGN_GEOMETRIC_PRESENTATION_REPRESENTATION('',(#193),#622);
#11=CONTEXT_DEPENDENT_SHAPE_REPRESENTATION(#13,#327);
#12=NEXT_ASSEMBLY_USAGE_OCCURRENCE('','','',#328,#329,'');
#13=(
REPRESENTATION_RELATIONSHIP('','',#342,#343)
REPRESENTATION_RELATIONSHIP_WITH_TRANSFORMATION(#14)
SHAPE_REPRESENTATION_RELATIONSHIP()
);
#14=ITEM_DEFINED_TRANSFORMATION('','',#402,#345);
#15=SHAPE_REPRESENTATION_RELATIONSHIP('','',#343,#16);
#16=ADVANCED_BREP_SHAPE_REPRESENTATION('',(#17,#401),#621);
#17=MANIFOLD_SOLID_BREP('',#18);
#18=CLOSED_SHELL('',(#37,#38,#39,#40,#41,#42,#43,#44,#45,#46,#47,#48,#49,
#50,#51,#52,#53,#54,#55,#56,#57));
#19=CONICAL_SURFACE('',#393,8.,0.785398163397448);
#20=CONICAL_SURFACE('',#394,8.,0.785398163397448);
#21=TOROIDAL_SURFACE('',#388,8.8,0.8);
#22=TOROIDAL_SURFACE('',#389,8.8,0.8);
#23=TOROIDAL_SURFACE('',#390,9.,0.8);
#24=TOROIDAL_SURFACE('',#391,9.,0.8);
#25=TOROIDAL_SURFACE('',#395,12.,4.);
#26=TOROIDAL_SURFACE('',#396,12.,4.);
#27=TOROIDAL_SURFACE('',#397,10.8,1.);
#28=TOROIDAL_SURFACE('',#398,10.8,1.);
#29=TOROIDAL_SURFACE('',#399,12.,0.5);
#30=TOROIDAL_SURFACE('',#400,12.,0.5);
#31=FACE_BOUND('',#81,.F.);
#32=FACE_BOUND('',#85,.F.);
#33=FACE_BOUND('',#93,.F.);
#34=PLANE('',#382);
#35=PLANE('',#385);
#36=PLANE('',#392);
#37=ADVANCED_FACE('',(#58),#187,.T.);
#38=ADVANCED_FACE('',(#59),#188,.T.);
#39=ADVANCED_FACE('',(#31,#60),#34,.T.);
#40=ADVANCED_FACE('',(#61),#189,.T.);
#41=ADVANCED_FACE('',(#62),#190,.T.);
#42=ADVANCED_FACE('',(#32,#63),#35,.T.);
#43=ADVANCED_FACE('',(#64),#191,.F.);
#44=ADVANCED_FACE('',(#65),#192,.F.);
#45=ADVANCED_FACE('',(#66),#21,.T.);
#46=ADVANCED_FACE('',(#67),#22,.T.);
#47=ADVANCED_FACE('',(#68),#23,.T.);
#48=ADVANCED_FACE('',(#69),#24,.T.);
#49=ADVANCED_FACE('',(#33,#70),#36,.T.);
#50=ADVANCED_FACE('',(#71),#19,.F.);
#51=ADVANCED_FACE('',(#72),#20,.F.);
#52=ADVANCED_FACE('',(#73),#25,.T.);
#53=ADVANCED_FACE('',(#74),#26,.T.);
#54=ADVANCED_FACE('',(#75),#27,.F.);
#55=ADVANCED_FACE('',(#76),#28,.F.);
#56=ADVANCED_FACE('',(#77),#29,.T.);
#57=ADVANCED_FACE('',(#78),#30,.T.);
#58=FACE_OUTER_BOUND('',#79,.F.);
#59=FACE_OUTER_BOUND('',#80,.F.);
#60=FACE_OUTER_BOUND('',#82,.F.);
#61=FACE_OUTER_BOUND('',#83,.F.);
#62=FACE_OUTER_BOUND('',#84,.F.);
#63=FACE_OUTER_BOUND('',#86,.F.);
#64=FACE_OUTER_BOUND('',#87,.F.);
#65=FACE_OUTER_BOUND('',#88,.F.);
#66=FACE_OUTER_BOUND('',#89,.F.);
#67=FACE_OUTER_BOUND('',#90,.F.);
#68=FACE_OUTER_BOUND('',#91,.F.);
#69=FACE_OUTER_BOUND('',#92,.F.);
#70=FACE_OUTER_BOUND('',#94,.F.);
#71=FACE_OUTER_BOUND('',#95,.F.);
#72=FACE_OUTER_BOUND('',#96,.F.);
#73=FACE_OUTER_BOUND('',#97,.F.);
#74=FACE_OUTER_BOUND('',#98,.F.);
#75=FACE_OUTER_BOUND('',#99,.F.);
#76=FACE_OUTER_BOUND('',#100,.F.);
#77=FACE_OUTER_BOUND('',#101,.F.);
#78=FACE_OUTER_BOUND('',#102,.F.);
#79=EDGE_LOOP('',(#103,#104,#105,#106));
#80=EDGE_LOOP('',(#107,#108,#109,#110));
#81=EDGE_LOOP('',(#111,#112));
#82=EDGE_LOOP('',(#113,#114));
#83=EDGE_LOOP('',(#115,#116,#117,#118));
#84=EDGE_LOOP('',(#119,#120,#121,#122));
#85=EDGE_LOOP('',(#123,#124));
#86=EDGE_LOOP('',(#125,#126));
#87=EDGE_LOOP('',(#127,#128,#129,#130));
#88=EDGE_LOOP('',(#131,#132,#133,#134));
#89=EDGE_LOOP('',(#135,#136,#137,#138));
#90=EDGE_LOOP('',(#139,#140,#141,#142));
#91=EDGE_LOOP('',(#143,#144,#145,#146));
#92=EDGE_LOOP('',(#147,#148,#149,#150));
#93=EDGE_LOOP('',(#151,#152));
#94=EDGE_LOOP('',(#153,#154));
#95=EDGE_LOOP('',(#155,#156,#157,#158));
#96=EDGE_LOOP('',(#159,#160,#161,#162));
#97=EDGE_LOOP('',(#163,#164,#165,#166));
#98=EDGE_LOOP('',(#167,#168,#169,#170));
#99=EDGE_LOOP('',(#171,#172,#173,#174));
#100=EDGE_LOOP('',(#175,#176,#177,#178));
#101=EDGE_LOOP('',(#179,#180,#181,#182));
#102=EDGE_LOOP('',(#183,#184,#185,#186));
#103=ORIENTED_EDGE('',*,*,#225,.F.);
#104=ORIENTED_EDGE('',*,*,#217,.T.);
#105=ORIENTED_EDGE('',*,*,#226,.T.);
#106=ORIENTED_EDGE('',*,*,#224,.F.);
#107=ORIENTED_EDGE('',*,*,#225,.T.);
#108=ORIENTED_EDGE('',*,*,#223,.F.);
#109=ORIENTED_EDGE('',*,*,#226,.F.);
#110=ORIENTED_EDGE('',*,*,#219,.T.);
#111=ORIENTED_EDGE('',*,*,#222,.T.);
#112=ORIENTED_EDGE('',*,*,#221,.T.);
#113=ORIENTED_EDGE('',*,*,#220,.F.);
#114=ORIENTED_EDGE('',*,*,#218,.F.);
#115=ORIENTED_EDGE('',*,*,#235,.F.);
#116=ORIENTED_EDGE('',*,*,#229,.T.);
#117=ORIENTED_EDGE('',*,*,#236,.T.);
#118=ORIENTED_EDGE('',*,*,#228,.F.);
#119=ORIENTED_EDGE('',*,*,#235,.T.);
#120=ORIENTED_EDGE('',*,*,#227,.F.);
#121=ORIENTED_EDGE('',*,*,#236,.F.);
#122=ORIENTED_EDGE('',*,*,#231,.T.);
#123=ORIENTED_EDGE('',*,*,#234,.T.);
#124=ORIENTED_EDGE('',*,*,#233,.T.);
#125=ORIENTED_EDGE('',*,*,#232,.F.);
#126=ORIENTED_EDGE('',*,*,#230,.F.);
#127=ORIENTED_EDGE('',*,*,#241,.T.);
#128=ORIENTED_EDGE('',*,*,#238,.T.);
#129=ORIENTED_EDGE('',*,*,#242,.F.);
#130=ORIENTED_EDGE('',*,*,#239,.F.);
#131=ORIENTED_EDGE('',*,*,#241,.F.);
#132=ORIENTED_EDGE('',*,*,#240,.F.);
#133=ORIENTED_EDGE('',*,*,#242,.T.);
#134=ORIENTED_EDGE('',*,*,#237,.T.);
#135=ORIENTED_EDGE('',*,*,#244,.F.);
#136=ORIENTED_EDGE('',*,*,#234,.F.);
#137=ORIENTED_EDGE('',*,*,#243,.T.);
#138=ORIENTED_EDGE('',*,*,#240,.T.);
#139=ORIENTED_EDGE('',*,*,#243,.F.);
#140=ORIENTED_EDGE('',*,*,#233,.F.);
#141=ORIENTED_EDGE('',*,*,#244,.T.);
#142=ORIENTED_EDGE('',*,*,#239,.T.);
#143=ORIENTED_EDGE('',*,*,#246,.F.);
#144=ORIENTED_EDGE('',*,*,#231,.F.);
#145=ORIENTED_EDGE('',*,*,#245,.T.);
#146=ORIENTED_EDGE('',*,*,#232,.T.);
#147=ORIENTED_EDGE('',*,*,#245,.F.);
#148=ORIENTED_EDGE('',*,*,#229,.F.);
#149=ORIENTED_EDGE('',*,*,#246,.T.);
#150=ORIENTED_EDGE('',*,*,#230,.T.);
#151=ORIENTED_EDGE('',*,*,#248,.F.);
#152=ORIENTED_EDGE('',*,*,#247,.F.);
#153=ORIENTED_EDGE('',*,*,#224,.T.);
#154=ORIENTED_EDGE('',*,*,#223,.T.);
#155=ORIENTED_EDGE('',*,*,#252,.F.);
#156=ORIENTED_EDGE('',*,*,#250,.F.);
#157=ORIENTED_EDGE('',*,*,#251,.T.);
#158=ORIENTED_EDGE('',*,*,#248,.T.);
#159=ORIENTED_EDGE('',*,*,#251,.F.);
#160=ORIENTED_EDGE('',*,*,#249,.F.);
#161=ORIENTED_EDGE('',*,*,#252,.T.);
#162=ORIENTED_EDGE('',*,*,#247,.T.);
#163=ORIENTED_EDGE('',*,*,#254,.F.);
#164=ORIENTED_EDGE('',*,*,#238,.F.);
#165=ORIENTED_EDGE('',*,*,#253,.T.);
#166=ORIENTED_EDGE('',*,*,#250,.T.);
#167=ORIENTED_EDGE('',*,*,#253,.F.);
#168=ORIENTED_EDGE('',*,*,#237,.F.);
#169=ORIENTED_EDGE('',*,*,#254,.T.);
#170=ORIENTED_EDGE('',*,*,#249,.T.);
#171=ORIENTED_EDGE('',*,*,#256,.T.);
#172=ORIENTED_EDGE('',*,*,#222,.F.);
#173=ORIENTED_EDGE('',*,*,#255,.F.);
#174=ORIENTED_EDGE('',*,*,#228,.T.);
#175=ORIENTED_EDGE('',*,*,#255,.T.);
#176=ORIENTED_EDGE('',*,*,#221,.F.);
#177=ORIENTED_EDGE('',*,*,#256,.F.);
#178=ORIENTED_EDGE('',*,*,#227,.T.);
#179=ORIENTED_EDGE('',*,*,#258,.F.);
#180=ORIENTED_EDGE('',*,*,#219,.F.);
#181=ORIENTED_EDGE('',*,*,#257,.T.);
#182=ORIENTED_EDGE('',*,*,#220,.T.);
#183=ORIENTED_EDGE('',*,*,#257,.F.);
#184=ORIENTED_EDGE('',*,*,#217,.F.);
#185=ORIENTED_EDGE('',*,*,#258,.T.);
#186=ORIENTED_EDGE('',*,*,#218,.T.);
#187=CYLINDRICAL_SURFACE('',#380,12.5);
#188=CYLINDRICAL_SURFACE('',#381,12.5);
#189=CYLINDRICAL_SURFACE('',#383,9.8);
#190=CYLINDRICAL_SURFACE('',#384,9.8);
#191=CYLINDRICAL_SURFACE('',#386,8.);
#192=CYLINDRICAL_SURFACE('',#387,8.);
#193=STYLED_ITEM('',(#194),#17);
#194=PRESENTATION_STYLE_ASSIGNMENT((#195));
#195=SURFACE_STYLE_USAGE(.BOTH.,#196);
#196=SURFACE_SIDE_STYLE('',(#197));
#197=SURFACE_STYLE_FILL_AREA(#198);
#198=FILL_AREA_STYLE('',(#199));
#199=FILL_AREA_STYLE_COLOUR('',#200);
#200=COLOUR_RGB('Colour',0.0313725490196078,0.501960784313725,0.862745098039216);
#201=LINE('',#563,#209);
#202=LINE('',#564,#210);
#203=LINE('',#573,#211);
#204=LINE('',#574,#212);
#205=LINE('',#579,#213);
#206=LINE('',#580,#214);
#207=LINE('',#589,#215);
#208=LINE('',#590,#216);
#209=VECTOR('',#423,2.2);
#210=VECTOR('',#424,2.2);
#211=VECTOR('',#441,10.2);
#212=VECTOR('',#442,10.2);
#213=VECTOR('',#451,9.24314575050761);
#214=VECTOR('',#452,9.24314575050761);
#215=VECTOR('',#469,2.58578643762689);
#216=VECTOR('',#470,2.58578643762688);
#217=EDGE_CURVE('',#316,#315,#259,.T.);
#218=EDGE_CURVE('',#314,#313,#260,.T.);
#219=EDGE_CURVE('',#315,#316,#261,.T.);
#220=EDGE_CURVE('',#313,#314,#262,.T.);
#221=EDGE_CURVE('',#312,#311,#263,.T.);
#222=EDGE_CURVE('',#311,#312,#264,.T.);
#223=EDGE_CURVE('',#310,#309,#265,.T.);
#224=EDGE_CURVE('',#309,#310,#266,.T.);
#225=EDGE_CURVE('',#316,#309,#201,.T.);
#226=EDGE_CURVE('',#315,#310,#202,.T.);
#227=EDGE_CURVE('',#308,#307,#267,.T.);
#228=EDGE_CURVE('',#307,#308,#268,.T.);
#229=EDGE_CURVE('',#306,#305,#269,.T.);
#230=EDGE_CURVE('',#304,#303,#270,.T.);
#231=EDGE_CURVE('',#305,#306,#271,.T.);
#232=EDGE_CURVE('',#303,#304,#272,.T.);
#233=EDGE_CURVE('',#302,#301,#273,.T.);
#234=EDGE_CURVE('',#301,#302,#274,.T.);
#235=EDGE_CURVE('',#306,#307,#203,.T.);
#236=EDGE_CURVE('',#305,#308,#204,.T.);
#237=EDGE_CURVE('',#300,#299,#275,.T.);
#238=EDGE_CURVE('',#299,#300,#276,.T.);
#239=EDGE_CURVE('',#298,#297,#277,.T.);
#240=EDGE_CURVE('',#297,#298,#278,.T.);
#241=EDGE_CURVE('',#298,#299,#205,.T.);
#242=EDGE_CURVE('',#297,#300,#206,.T.);
#243=EDGE_CURVE('',#301,#297,#279,.T.);
#244=EDGE_CURVE('',#302,#298,#280,.T.);
#245=EDGE_CURVE('',#305,#303,#281,.T.);
#246=EDGE_CURVE('',#306,#304,#282,.T.);
#247=EDGE_CURVE('',#296,#295,#283,.T.);
#248=EDGE_CURVE('',#295,#296,#284,.T.);
#249=EDGE_CURVE('',#294,#293,#285,.T.);
#250=EDGE_CURVE('',#293,#294,#286,.T.);
#251=EDGE_CURVE('',#293,#295,#207,.T.);
#252=EDGE_CURVE('',#294,#296,#208,.T.);
#253=EDGE_CURVE('',#299,#293,#287,.T.);
#254=EDGE_CURVE('',#300,#294,#288,.T.);
#255=EDGE_CURVE('',#307,#311,#289,.T.);
#256=EDGE_CURVE('',#308,#312,#290,.T.);
#257=EDGE_CURVE('',#315,#313,#291,.T.);
#258=EDGE_CURVE('',#316,#314,#292,.T.);
#259=CIRCLE('',#346,12.5);
#260=CIRCLE('',#347,12.);
#261=CIRCLE('',#348,12.5);
#262=CIRCLE('',#349,12.);
#263=CIRCLE('',#350,10.8);
#264=CIRCLE('',#351,10.8);
#265=CIRCLE('',#352,12.5);
#266=CIRCLE('',#353,12.5);
#267=CIRCLE('',#354,9.8);
#268=CIRCLE('',#355,9.8);
#269=CIRCLE('',#356,9.8);
#270=CIRCLE('',#357,9.);
#271=CIRCLE('',#358,9.8);
#272=CIRCLE('',#359,9.);
#273=CIRCLE('',#360,8.8);
#274=CIRCLE('',#361,8.8);
#275=CIRCLE('',#362,8.);
#276=CIRCLE('',#363,8.);
#277=CIRCLE('',#364,8.);
#278=CIRCLE('',#365,8.);
#279=CIRCLE('',#366,0.8);
#280=CIRCLE('',#367,0.8);
#281=CIRCLE('',#368,0.8);
#282=CIRCLE('',#369,0.8);
#283=CIRCLE('',#370,11.);
#284=CIRCLE('',#371,11.);
#285=CIRCLE('',#372,9.17157287525381);
#286=CIRCLE('',#373,9.17157287525381);
#287=CIRCLE('',#374,4.);
#288=CIRCLE('',#375,4.);
#289=CIRCLE('',#376,1.);
#290=CIRCLE('',#377,1.);
#291=CIRCLE('',#378,0.5);
#292=CIRCLE('',#379,0.5);
#293=VERTEX_POINT('',#531);
#294=VERTEX_POINT('',#532);
#295=VERTEX_POINT('',#533);
#296=VERTEX_POINT('',#534);
#297=VERTEX_POINT('',#535);
#298=VERTEX_POINT('',#536);
#299=VERTEX_POINT('',#537);
#300=VERTEX_POINT('',#538);
#301=VERTEX_POINT('',#539);
#302=VERTEX_POINT('',#540);
#303=VERTEX_POINT('',#541);
#304=VERTEX_POINT('',#542);
#305=VERTEX_POINT('',#543);
#306=VERTEX_POINT('',#544);
#307=VERTEX_POINT('',#545);
#308=VERTEX_POINT('',#546);
#309=VERTEX_POINT('',#547);
#310=VERTEX_POINT('',#548);
#311=VERTEX_POINT('',#549);
#312=VERTEX_POINT('',#550);
#313=VERTEX_POINT('',#551);
#314=VERTEX_POINT('',#552);
#315=VERTEX_POINT('',#553);
#316=VERTEX_POINT('',#554);
#317=PRODUCT_CATEGORY_RELATIONSHIP('','',#321,#319);
#318=PRODUCT_CATEGORY_RELATIONSHIP('','',#322,#320);
#319=PRODUCT_RELATED_PRODUCT_CATEGORY('detail','',(#334));
#320=PRODUCT_RELATED_PRODUCT_CATEGORY('detail','',(#335));
#321=PRODUCT_CATEGORY('part','');
#322=PRODUCT_CATEGORY('part','');
#323=SHAPE_DEFINITION_REPRESENTATION(#325,#342);
#324=SHAPE_DEFINITION_REPRESENTATION(#326,#343);
#325=PRODUCT_DEFINITION_SHAPE('','Shape',#328);
#326=PRODUCT_DEFINITION_SHAPE('','Shape',#329);
#327=PRODUCT_DEFINITION_SHAPE('','',#12);
#328=PRODUCT_DEFINITION('','',#330,#332);
#329=PRODUCT_DEFINITION('','',#331,#333);
#330=PRODUCT_DEFINITION_FORMATION('','',#334);
#331=PRODUCT_DEFINITION_FORMATION('','',#335);
#332=PRODUCT_DEFINITION_CONTEXT('part definition',#340,'');
#333=PRODUCT_DEFINITION_CONTEXT('part definition',#341,'');
#334=PRODUCT('0393-27-10','0393-27-10','not specified',(#336));
#335=PRODUCT('0393-27-10','0393-27-10','not specified',(#337));
#336=PRODUCT_CONTEXT('',#340,'mechanical');
#337=PRODUCT_CONTEXT('',#341,'mechanical');
#338=APPLICATION_PROTOCOL_DEFINITION('Draft International Standard',
'automotive_design',1997,#340);
#339=APPLICATION_PROTOCOL_DEFINITION('Draft International Standard',
'automotive_design',1997,#341);
#340=APPLICATION_CONTEXT('automotive design');
#341=APPLICATION_CONTEXT('automotive design');
#342=SHAPE_REPRESENTATION('0393-27-10',(#344,#402),#620);
#343=SHAPE_REPRESENTATION('0393-27-10',(#345),#621);
#344=AXIS2_PLACEMENT_3D('',#529,#403,#404);
#345=AXIS2_PLACEMENT_3D('',#530,#405,#406);
#346=AXIS2_PLACEMENT_3D('',#555,#407,#408);
#347=AXIS2_PLACEMENT_3D('',#556,#409,#410);
#348=AXIS2_PLACEMENT_3D('',#557,#411,#412);
#349=AXIS2_PLACEMENT_3D('',#558,#413,#414);
#350=AXIS2_PLACEMENT_3D('',#559,#415,#416);
#351=AXIS2_PLACEMENT_3D('',#560,#417,#418);
#352=AXIS2_PLACEMENT_3D('',#561,#419,#420);
#353=AXIS2_PLACEMENT_3D('',#562,#421,#422);
#354=AXIS2_PLACEMENT_3D('',#565,#425,#426);
#355=AXIS2_PLACEMENT_3D('',#566,#427,#428);
#356=AXIS2_PLACEMENT_3D('',#567,#429,#430);
#357=AXIS2_PLACEMENT_3D('',#568,#431,#432);
#358=AXIS2_PLACEMENT_3D('',#569,#433,#434);
#359=AXIS2_PLACEMENT_3D('',#570,#435,#436);
#360=AXIS2_PLACEMENT_3D('',#571,#437,#438);
#361=AXIS2_PLACEMENT_3D('',#572,#439,#440);
#362=AXIS2_PLACEMENT_3D('',#575,#443,#444);
#363=AXIS2_PLACEMENT_3D('',#576,#445,#446);
#364=AXIS2_PLACEMENT_3D('',#577,#447,#448);
#365=AXIS2_PLACEMENT_3D('',#578,#449,#450);
#366=AXIS2_PLACEMENT_3D('',#581,#453,#454);
#367=AXIS2_PLACEMENT_3D('',#582,#455,#456);
#368=AXIS2_PLACEMENT_3D('',#583,#457,#458);
#369=AXIS2_PLACEMENT_3D('',#584,#459,#460);
#370=AXIS2_PLACEMENT_3D('',#585,#461,#462);
#371=AXIS2_PLACEMENT_3D('',#586,#463,#464);
#372=AXIS2_PLACEMENT_3D('',#587,#465,#466);
#373=AXIS2_PLACEMENT_3D('',#588,#467,#468);
#374=AXIS2_PLACEMENT_3D('',#591,#471,#472);
#375=AXIS2_PLACEMENT_3D('',#592,#473,#474);
#376=AXIS2_PLACEMENT_3D('',#593,#475,#476);
#377=AXIS2_PLACEMENT_3D('',#594,#477,#478);
#378=AXIS2_PLACEMENT_3D('',#595,#479,#480);
#379=AXIS2_PLACEMENT_3D('',#596,#481,#482);
#380=AXIS2_PLACEMENT_3D('',#597,#483,#484);
#381=AXIS2_PLACEMENT_3D('',#598,#485,#486);
#382=AXIS2_PLACEMENT_3D('',#599,#487,#488);
#383=AXIS2_PLACEMENT_3D('',#600,#489,#490);
#384=AXIS2_PLACEMENT_3D('',#601,#491,#492);
#385=AXIS2_PLACEMENT_3D('',#602,#493,#494);
#386=AXIS2_PLACEMENT_3D('',#603,#495,#496);
#387=AXIS2_PLACEMENT_3D('',#604,#497,#498);
#388=AXIS2_PLACEMENT_3D('',#605,#499,#500);
#389=AXIS2_PLACEMENT_3D('',#606,#501,#502);
#390=AXIS2_PLACEMENT_3D('',#607,#503,#504);
#391=AXIS2_PLACEMENT_3D('',#608,#505,#506);
#392=AXIS2_PLACEMENT_3D('',#609,#507,#508);
#393=AXIS2_PLACEMENT_3D('',#610,#510,#509);
#394=AXIS2_PLACEMENT_3D('',#611,#512,#511);
#395=AXIS2_PLACEMENT_3D('',#612,#513,#514);
#396=AXIS2_PLACEMENT_3D('',#613,#515,#516);
#397=AXIS2_PLACEMENT_3D('',#614,#517,#518);
#398=AXIS2_PLACEMENT_3D('',#615,#519,#520);
#399=AXIS2_PLACEMENT_3D('',#616,#521,#522);
#400=AXIS2_PLACEMENT_3D('',#617,#523,#524);
#401=AXIS2_PLACEMENT_3D('',#618,#525,#526);
#402=AXIS2_PLACEMENT_3D('',#619,#527,#528);
#403=DIRECTION('',(0.,0.,1.));
#404=DIRECTION('',(1.,0.,0.));
#405=DIRECTION('',(0.,0.,1.));
#406=DIRECTION('',(1.,0.,0.));
#407=DIRECTION('',(1.,0.,0.));
#408=DIRECTION('',(0.,0.,1.));
#409=DIRECTION('',(1.,0.,0.));
#410=DIRECTION('',(0.,0.,1.));
#411=DIRECTION('',(1.,0.,0.));
#412=DIRECTION('',(0.,0.,-1.));
#413=DIRECTION('',(1.,0.,0.));
#414=DIRECTION('',(0.,0.,-1.));
#415=DIRECTION('',(1.,0.,0.));
#416=DIRECTION('',(0.,0.,-1.));
#417=DIRECTION('',(1.,0.,0.));
#418=DIRECTION('',(0.,0.,1.));
#419=DIRECTION('',(1.,0.,0.));
#420=DIRECTION('',(0.,0.,-1.));
#421=DIRECTION('',(1.,0.,0.));
#422=DIRECTION('',(0.,0.,1.));
#423=DIRECTION('',(-1.,0.,0.));
#424=DIRECTION('',(-1.,0.,0.));
#425=DIRECTION('',(1.,0.,0.));
#426=DIRECTION('',(0.,0.,-1.));
#427=DIRECTION('',(1.,0.,0.));
#428=DIRECTION('',(0.,0.,1.));
#429=DIRECTION('',(1.,0.,0.));
#430=DIRECTION('',(0.,0.,1.));
#431=DIRECTION('',(1.,0.,0.));
#432=DIRECTION('',(0.,0.,1.));
#433=DIRECTION('',(1.,0.,0.));
#434=DIRECTION('',(0.,0.,-1.));
#435=DIRECTION('',(1.,0.,0.));
#436=DIRECTION('',(0.,0.,-1.));
#437=DIRECTION('',(1.,0.,0.));
#438=DIRECTION('',(0.,0.,1.));
#439=DIRECTION('',(1.,0.,0.));
#440=DIRECTION('',(0.,0.,-1.));
#441=DIRECTION('',(-1.,0.,0.));
#442=DIRECTION('',(-1.,0.,0.));
#443=DIRECTION('',(1.,0.,0.));
#444=DIRECTION('',(0.,0.,-1.));
#445=DIRECTION('',(1.,0.,0.));
#446=DIRECTION('',(0.,0.,1.));
#447=DIRECTION('',(1.,0.,0.));
#448=DIRECTION('',(0.,0.,1.));
#449=DIRECTION('',(1.,0.,0.));
#450=DIRECTION('',(0.,0.,-1.));
#451=DIRECTION('',(-1.,0.,0.));
#452=DIRECTION('',(-1.,0.,0.));
#453=DIRECTION('',(0.,-1.,0.));
#454=DIRECTION('',(1.,0.,0.));
#455=DIRECTION('',(0.,1.,0.));
#456=DIRECTION('',(1.,0.,0.));
#457=DIRECTION('',(0.,-1.,0.));
#458=DIRECTION('',(0.,0.,-1.));
#459=DIRECTION('',(0.,1.,0.));
#460=DIRECTION('',(0.,0.,1.));
#461=DIRECTION('',(1.,0.,0.));
#462=DIRECTION('',(0.,0.,-1.));
#463=DIRECTION('',(1.,0.,0.));
#464=DIRECTION('',(0.,0.,1.));
#465=DIRECTION('',(1.,0.,0.));
#466=DIRECTION('',(0.,0.,-1.));
#467=DIRECTION('',(1.,0.,0.));
#468=DIRECTION('',(0.,0.,1.));
#469=DIRECTION('',(-0.707106781186548,0.,0.707106781186547));
#470=DIRECTION('',(-0.707106781186549,0.,-0.707106781186546));
#471=DIRECTION('',(0.,1.,0.));
#472=DIRECTION('',(0.,0.,-1.));
#473=DIRECTION('',(0.,-1.,0.));
#474=DIRECTION('',(0.,0.,1.));
#475=DIRECTION('',(0.,1.,0.));
#476=DIRECTION('',(0.,0.,-1.));
#477=DIRECTION('',(0.,-1.,0.));
#478=DIRECTION('',(0.,0.,1.));
#479=DIRECTION('',(0.,-1.,0.));
#480=DIRECTION('',(0.,0.,-1.));
#481=DIRECTION('',(0.,1.,0.));
#482=DIRECTION('',(0.,0.,1.));
#483=DIRECTION('',(1.,0.,0.));
#484=DIRECTION('',(0.,0.,1.));
#485=DIRECTION('',(1.,0.,0.));
#486=DIRECTION('',(0.,0.,-1.));
#487=DIRECTION('',(1.,0.,0.));
#488=DIRECTION('',(0.,-1.,0.));
#489=DIRECTION('',(1.,0.,0.));
#490=DIRECTION('',(0.,0.,1.));
#491=DIRECTION('',(1.,0.,0.));
#492=DIRECTION('',(0.,0.,-1.));
#493=DIRECTION('',(1.,0.,0.));
#494=DIRECTION('',(0.,-1.,0.));
#495=DIRECTION('',(1.,0.,0.));
#496=DIRECTION('',(0.,0.,1.));
#497=DIRECTION('',(1.,0.,0.));
#498=DIRECTION('',(0.,0.,-1.));
#499=DIRECTION('',(1.,0.,0.));
#500=DIRECTION('',(0.,0.,-1.));
#501=DIRECTION('',(1.,0.,0.));
#502=DIRECTION('',(0.,0.,1.));
#503=DIRECTION('',(1.,0.,0.));
#504=DIRECTION('',(0.,0.,-1.));
#505=DIRECTION('',(1.,0.,0.));
#506=DIRECTION('',(0.,0.,1.));
#507=DIRECTION('',(-1.,0.,0.));
#508=DIRECTION('',(0.,-1.,0.));
#509=DIRECTION('',(0.,0.,1.));
#510=DIRECTION('',(-1.,0.,0.));
#511=DIRECTION('',(0.,0.,-1.));
#512=DIRECTION('',(-1.,0.,0.));
#513=DIRECTION('',(1.,0.,0.));
#514=DIRECTION('',(0.,0.,1.));
#515=DIRECTION('',(1.,0.,0.));
#516=DIRECTION('',(0.,0.,-1.));
#517=DIRECTION('',(1.,0.,0.));
#518=DIRECTION('',(0.,0.,1.));
#519=DIRECTION('',(1.,0.,0.));
#520=DIRECTION('',(0.,0.,-1.));
#521=DIRECTION('',(1.,0.,0.));
#522=DIRECTION('',(0.,0.,-1.));
#523=DIRECTION('',(1.,0.,0.));
#524=DIRECTION('',(0.,0.,1.));
#525=DIRECTION('',(0.,0.,1.));
#526=DIRECTION('',(1.,0.,0.));
#527=DIRECTION('',(0.,0.,1.));
#528=DIRECTION('',(1.,0.,0.));
#529=CARTESIAN_POINT('',(0.,0.,0.));
#530=CARTESIAN_POINT('',(0.,0.,0.));
#531=CARTESIAN_POINT('',(52.3434271378453,-49.9999958811694,9.17157274807661));
#532=CARTESIAN_POINT('',(52.3434271378453,-49.9999958811694,-9.17157300243101));
#533=CARTESIAN_POINT('',(50.5150000130991,-49.9999958811694,10.9999998728228));
#534=CARTESIAN_POINT('',(50.5150000130991,-49.9999958811694,-11.0000001271772));
#535=CARTESIAN_POINT('',(64.4150000130991,-49.9999958811694,-8.0000001271772));
#536=CARTESIAN_POINT('',(64.4150000130991,-49.9999958811694,7.9999998728228));
#537=CARTESIAN_POINT('',(55.1718542625915,-49.9999958811694,7.9999998728228));
#538=CARTESIAN_POINT('',(55.1718542625915,-49.9999958811694,-8.0000001271772));
#539=CARTESIAN_POINT('',(65.2150000130991,-49.9999958811694,-8.8000001271772));
#540=CARTESIAN_POINT('',(65.2150000130991,-49.9999958811694,8.7999998728228));
#541=CARTESIAN_POINT('',(65.2150000130991,-49.9999958811694,-9.0000001271772));
#542=CARTESIAN_POINT('',(65.2150000130991,-49.9999958811694,8.9999998728228));
#543=CARTESIAN_POINT('',(64.4150000130991,-49.9999958811694,-9.8000001271772));
#544=CARTESIAN_POINT('',(64.4150000130991,-49.9999958811694,9.7999998728228));
#545=CARTESIAN_POINT('',(54.2150000130991,-49.9999958811694,9.7999998728228));
#546=CARTESIAN_POINT('',(54.2150000130991,-49.9999958811694,-9.8000001271772));
#547=CARTESIAN_POINT('',(50.5150000130991,-49.9999958811694,12.4999998728228));
#548=CARTESIAN_POINT('',(50.5150000130991,-49.9999958811694,-12.5000001271772));
#549=CARTESIAN_POINT('',(53.2150000130991,-49.9999958811694,10.7999998728228));
#550=CARTESIAN_POINT('',(53.2150000130991,-49.9999958811694,-10.8000001271772));
#551=CARTESIAN_POINT('',(53.2150000130991,-49.9999958811694,-12.0000001271772));
#552=CARTESIAN_POINT('',(53.2150000130991,-49.9999958811694,11.9999998728228));
#553=CARTESIAN_POINT('',(52.7150000130991,-49.9999958811694,-12.5000001271772));
#554=CARTESIAN_POINT('',(52.7150000130991,-49.9999958811694,12.4999998728228));
#555=CARTESIAN_POINT('',(52.7150000130991,-49.9999958811694,-1.27177200624649E-07));
#556=CARTESIAN_POINT('',(53.2150000130991,-49.9999958811694,-1.27177199335375E-07));
#557=CARTESIAN_POINT('',(52.7150000130991,-49.9999958811694,-1.27177200624649E-07));
#558=CARTESIAN_POINT('',(53.2150000130991,-49.9999958811694,-1.27177199335375E-07));
#559=CARTESIAN_POINT('',(53.2150000130991,-49.9999958811694,-1.27177199335375E-07));
#560=CARTESIAN_POINT('',(53.2150000130991,-49.9999958811694,-1.27177199335375E-07));
#561=CARTESIAN_POINT('',(50.5150000130991,-49.9999958811694,-1.27177200789976E-07));
#562=CARTESIAN_POINT('',(50.5150000130991,-49.9999958811694,-1.27177200789976E-07));
#563=CARTESIAN_POINT('',(52.7150000130991,-49.9999958811694,12.4999998728228));
#564=CARTESIAN_POINT('',(52.7150000130991,-49.9999958811694,-12.5000001271772));
#565=CARTESIAN_POINT('',(54.2150000130991,-49.9999958811694,-1.2717719988986E-07));
#566=CARTESIAN_POINT('',(54.2150000130991,-49.9999958811694,-1.2717719988986E-07));
#567=CARTESIAN_POINT('',(64.4150000130991,-49.9999958811694,-1.2717719988986E-07));
#568=CARTESIAN_POINT('',(65.2150000130991,-49.9999958811694,-1.27177200376944E-07));
#569=CARTESIAN_POINT('',(64.4150000130991,-49.9999958811694,-1.2717719988986E-07));
#570=CARTESIAN_POINT('',(65.2150000130991,-49.9999958811694,-1.27177200376944E-07));
#571=CARTESIAN_POINT('',(65.2150000130991,-49.9999958811694,-1.27177200376944E-07));
#572=CARTESIAN_POINT('',(65.2150000130991,-49.9999958811694,-1.27177200376944E-07));
#573=CARTESIAN_POINT('',(64.4150000130991,-49.9999958811694,9.7999998728228));
#574=CARTESIAN_POINT('',(64.4150000130991,-49.9999958811694,-9.8000001271772));
#575=CARTESIAN_POINT('',(55.1718542625915,-49.9999958811694,-1.27177199798012E-07));
#576=CARTESIAN_POINT('',(55.1718542625915,-49.9999958811694,-1.2717720068619E-07));
#577=CARTESIAN_POINT('',(64.4150000130991,-49.9999958811694,-1.27177199798012E-07));
#578=CARTESIAN_POINT('',(64.4150000130991,-49.9999958811694,-1.27177199798012E-07));
#579=CARTESIAN_POINT('',(64.4150000130991,-49.9999958811694,7.9999998728228));
#580=CARTESIAN_POINT('',(64.4150000130991,-49.9999958811694,-8.0000001271772));
#581=CARTESIAN_POINT('',(64.4150000130991,-49.9999958811694,-8.8000001271772));
#582=CARTESIAN_POINT('',(64.4150000130991,-49.9999958811694,8.7999998728228));
#583=CARTESIAN_POINT('',(64.4150000130991,-49.9999958811694,-9.0000001271772));
#584=CARTESIAN_POINT('',(64.4150000130991,-49.9999958811694,8.9999998728228));
#585=CARTESIAN_POINT('',(50.5150000130991,-49.9999958811694,-1.27177199500703E-07));
#586=CARTESIAN_POINT('',(50.5150000130991,-49.9999958811694,-1.27177199500703E-07));
#587=CARTESIAN_POINT('',(52.3434271378453,-49.9999958811694,-1.27177200678017E-07));
#588=CARTESIAN_POINT('',(52.3434271378453,-49.9999958811694,-1.27177200678017E-07));
#589=CARTESIAN_POINT('',(52.3434271378453,-49.9999958811694,9.17157274807661));
#590=CARTESIAN_POINT('',(52.3434271378453,-49.9999958811694,-9.17157300243101));
#591=CARTESIAN_POINT('',(55.1718542625915,-49.9999958811694,11.9999998728228));
#592=CARTESIAN_POINT('',(55.1718542625915,-49.9999958811694,-12.0000001271772));
#593=CARTESIAN_POINT('',(54.2150000130991,-49.9999958811694,10.7999998728228));
#594=CARTESIAN_POINT('',(54.2150000130991,-49.9999958811694,-10.8000001271772));
#595=CARTESIAN_POINT('',(52.7150000130991,-49.9999958811694,-12.0000001271772));
#596=CARTESIAN_POINT('',(52.7150000130991,-49.9999958811694,11.9999998728228));
#597=CARTESIAN_POINT('',(53.2150000130991,-49.9999958811694,-1.27177200624649E-07));
#598=CARTESIAN_POINT('',(53.2150000130991,-49.9999958811694,-1.27177200624649E-07));
#599=CARTESIAN_POINT('',(53.2150000130991,-37.4999958811694,12.4999998728228));
#600=CARTESIAN_POINT('',(65.2150000130991,-49.9999958811694,-1.2717719988986E-07));
#601=CARTESIAN_POINT('',(65.2150000130991,-49.9999958811694,-1.2717719988986E-07));
#602=CARTESIAN_POINT('',(65.2150000130991,-40.1999958811694,9.7999998728228));
#603=CARTESIAN_POINT('',(66.7150000130991,-49.9999958811694,-1.27177199798012E-07));
#604=CARTESIAN_POINT('',(66.7150000130991,-49.9999958811694,-1.27177199798012E-07));
#605=CARTESIAN_POINT('',(64.4150000130991,-49.9999958811694,-1.27177199938846E-07));
#606=CARTESIAN_POINT('',(64.4150000130991,-49.9999958811694,-1.27177199938846E-07));
#607=CARTESIAN_POINT('',(64.4150000130991,-49.9999958811694,-1.27177199938846E-07));
#608=CARTESIAN_POINT('',(64.4150000130991,-49.9999958811694,-1.27177199938846E-07));
#609=CARTESIAN_POINT('',(50.5150000130991,-35.4999958811694,14.4999998728228));
#610=CARTESIAN_POINT('',(53.5150000130991,-49.9999958811694,-1.27177200606279E-07));
#611=CARTESIAN_POINT('',(53.5150000130991,-49.9999958811694,-1.27177200606279E-07));
#612=CARTESIAN_POINT('',(55.1718542625915,-49.9999958811694,-1.27177201574369E-07));
#613=CARTESIAN_POINT('',(55.1718542625915,-49.9999958811694,-1.27177199798012E-07));
#614=CARTESIAN_POINT('',(54.2150000130991,-49.9999958811694,-1.27177200563416E-07));
#615=CARTESIAN_POINT('',(54.2150000130991,-49.9999958811694,-1.27177200563416E-07));
#616=CARTESIAN_POINT('',(52.7150000130991,-49.9999958811694,-1.27177200655265E-07));
#617=CARTESIAN_POINT('',(52.7150000130991,-49.9999958811694,-1.27177200655265E-07));
#618=CARTESIAN_POINT('',(0.,0.,0.));
#619=CARTESIAN_POINT('',(0.,0.,0.));
#620=(
GEOMETRIC_REPRESENTATION_CONTEXT(3)
GLOBAL_UNCERTAINTY_ASSIGNED_CONTEXT((#623))
GLOBAL_UNIT_ASSIGNED_CONTEXT((#632,#629,#626))
REPRESENTATION_CONTEXT('','')
);
#621=(
GEOMETRIC_REPRESENTATION_CONTEXT(3)
GLOBAL_UNCERTAINTY_ASSIGNED_CONTEXT((#624))
GLOBAL_UNIT_ASSIGNED_CONTEXT((#633,#630,#627))
REPRESENTATION_CONTEXT('','')
);
#622=(
GEOMETRIC_REPRESENTATION_CONTEXT(3)
GLOBAL_UNCERTAINTY_ASSIGNED_CONTEXT((#625))
GLOBAL_UNIT_ASSIGNED_CONTEXT((#634,#631,#628))
REPRESENTATION_CONTEXT('','')
);
#623=UNCERTAINTY_MEASURE_WITH_UNIT(LENGTH_MEASURE(0.001),#632,'TOL_CRV',
'CONFUSED CURVE UNCERTAINTY');
#624=UNCERTAINTY_MEASURE_WITH_UNIT(LENGTH_MEASURE(0.001),#633,'TOL_CRV',
'CONFUSED CURVE UNCERTAINTY');
#625=UNCERTAINTY_MEASURE_WITH_UNIT(LENGTH_MEASURE(0.001),#634,'TOL_CRV',
'CONFUSED CURVE UNCERTAINTY');
#626=(
NAMED_UNIT(*)
SI_UNIT($,.STERADIAN.)
SOLID_ANGLE_UNIT()
);
#627=(
NAMED_UNIT(*)
SI_UNIT($,.STERADIAN.)
SOLID_ANGLE_UNIT()
);
#628=(
NAMED_UNIT(*)
SI_UNIT($,.STERADIAN.)
SOLID_ANGLE_UNIT()
);
#629=(
NAMED_UNIT(*)
PLANE_ANGLE_UNIT()
SI_UNIT($,.RADIAN.)
);
#630=(
NAMED_UNIT(*)
PLANE_ANGLE_UNIT()
SI_UNIT($,.RADIAN.)
);
#631=(
NAMED_UNIT(*)
PLANE_ANGLE_UNIT()
SI_UNIT($,.RADIAN.)
);
#632=(
LENGTH_UNIT()
NAMED_UNIT(*)
SI_UNIT(.MILLI.,.METRE.)
);
#633=(
LENGTH_UNIT()
NAMED_UNIT(*)
SI_UNIT(.MILLI.,.METRE.)
);
#634=(
LENGTH_UNIT()
NAMED_UNIT(*)
SI_UNIT(.MILLI.,.METRE.)
);
ENDSEC;
END-ISO-10303-21;
