ISO-10303-21;
HEADER;
/* Generated by software containing ST-Developer
 * from STEP Tools, Inc. (www.steptools.com) 
 */
/* OPTION: using custom schema-name function */

FILE_DESCRIPTION(
/* description */ ('VariCAD 2015-2.06 AP-214'),
/* implementation_level */ '2;1');

FILE_NAME(
/* name */ '0393-27-06.stp',
/* time_stamp */ '2016-05-11T12:49:25-06:00',
/* author */ (''),
/* organization */ (''),
/* preprocessor_version */ 'ST-DEVELOPER v14',
/* originating_system */ 'VariCAD 2015-2.06; kernel version (20130303)',

/* authorisation */ '');

FILE_SCHEMA (('AUTOMOTIVE_DESIGN'));
ENDSEC;

DATA;
#10=MECHANICAL_DESIGN_GEOMETRIC_PRESENTATION_REPRESENTATION('',(#161),#520);
#11=CONTEXT_DEPENDENT_SHAPE_REPRESENTATION(#13,#273);
#12=NEXT_ASSEMBLY_USAGE_OCCURRENCE('','','',#274,#275,'');
#13=(
REPRESENTATION_RELATIONSHIP('','',#288,#289)
REPRESENTATION_RELATIONSHIP_WITH_TRANSFORMATION(#14)
SHAPE_REPRESENTATION_RELATIONSHIP()
);
#14=ITEM_DEFINED_TRANSFORMATION('','',#338,#291);
#15=SHAPE_REPRESENTATION_RELATIONSHIP('','',#289,#16);
#16=ADVANCED_BREP_SHAPE_REPRESENTATION('',(#17,#337),#519);
#17=MANIFOLD_SOLID_BREP('',#18);
#18=CLOSED_SHELL('',(#33,#34,#35,#36,#37,#38,#39,#40,#41,#42,#43,#44,#45,
#46,#47,#48,#49));
#19=TOROIDAL_SURFACE('',#329,9.,0.8);
#20=TOROIDAL_SURFACE('',#330,8.99999999999999,0.8);
#21=TOROIDAL_SURFACE('',#331,8.79999999999999,0.8);
#22=TOROIDAL_SURFACE('',#332,8.8,0.8);
#23=TOROIDAL_SURFACE('',#333,10.6,0.8);
#24=TOROIDAL_SURFACE('',#334,10.6,0.8);
#25=TOROIDAL_SURFACE('',#335,11.6,0.8);
#26=TOROIDAL_SURFACE('',#336,11.6,0.8);
#27=FACE_BOUND('',#71,.F.);
#28=FACE_BOUND('',#74,.F.);
#29=FACE_BOUND('',#77,.F.);
#30=PLANE('',#324);
#31=PLANE('',#326);
#32=PLANE('',#328);
#33=ADVANCED_FACE('',(#50),#155,.T.);
#34=ADVANCED_FACE('',(#51),#156,.T.);
#35=ADVANCED_FACE('',(#52),#157,.F.);
#36=ADVANCED_FACE('',(#53),#158,.T.);
#37=ADVANCED_FACE('',(#27,#54),#30,.T.);
#38=ADVANCED_FACE('',(#55),#159,.T.);
#39=ADVANCED_FACE('',(#28,#56),#31,.T.);
#40=ADVANCED_FACE('',(#57),#160,.F.);
#41=ADVANCED_FACE('',(#29,#58),#32,.T.);
#42=ADVANCED_FACE('',(#59),#19,.T.);
#43=ADVANCED_FACE('',(#60),#20,.T.);
#44=ADVANCED_FACE('',(#61),#21,.T.);
#45=ADVANCED_FACE('',(#62),#22,.T.);
#46=ADVANCED_FACE('',(#63),#23,.F.);
#47=ADVANCED_FACE('',(#64),#24,.F.);
#48=ADVANCED_FACE('',(#65),#25,.T.);
#49=ADVANCED_FACE('',(#66),#26,.T.);
#50=FACE_OUTER_BOUND('',#67,.F.);
#51=FACE_OUTER_BOUND('',#68,.F.);
#52=FACE_OUTER_BOUND('',#69,.F.);
#53=FACE_OUTER_BOUND('',#70,.F.);
#54=FACE_OUTER_BOUND('',#72,.F.);
#55=FACE_OUTER_BOUND('',#73,.F.);
#56=FACE_OUTER_BOUND('',#75,.F.);
#57=FACE_OUTER_BOUND('',#76,.F.);
#58=FACE_OUTER_BOUND('',#78,.F.);
#59=FACE_OUTER_BOUND('',#79,.F.);
#60=FACE_OUTER_BOUND('',#80,.F.);
#61=FACE_OUTER_BOUND('',#81,.F.);
#62=FACE_OUTER_BOUND('',#82,.F.);
#63=FACE_OUTER_BOUND('',#83,.F.);
#64=FACE_OUTER_BOUND('',#84,.F.);
#65=FACE_OUTER_BOUND('',#85,.F.);
#66=FACE_OUTER_BOUND('',#86,.F.);
#67=EDGE_LOOP('',(#87,#88,#89,#90));
#68=EDGE_LOOP('',(#91,#92,#93,#94));
#69=EDGE_LOOP('',(#95,#96,#97,#98));
#70=EDGE_LOOP('',(#99,#100,#101,#102));
#71=EDGE_LOOP('',(#103,#104));
#72=EDGE_LOOP('',(#105,#106));
#73=EDGE_LOOP('',(#107,#108,#109,#110));
#74=EDGE_LOOP('',(#111,#112));
#75=EDGE_LOOP('',(#113,#114));
#76=EDGE_LOOP('',(#115,#116,#117,#118));
#77=EDGE_LOOP('',(#119,#120));
#78=EDGE_LOOP('',(#121,#122));
#79=EDGE_LOOP('',(#123,#124,#125,#126));
#80=EDGE_LOOP('',(#127,#128,#129,#130));
#81=EDGE_LOOP('',(#131,#132,#133,#134));
#82=EDGE_LOOP('',(#135,#136,#137,#138));
#83=EDGE_LOOP('',(#139,#140,#141,#142));
#84=EDGE_LOOP('',(#143,#144,#145,#146));
#85=EDGE_LOOP('',(#147,#148,#149,#150));
#86=EDGE_LOOP('',(#151,#152,#153,#154));
#87=ORIENTED_EDGE('',*,*,#200,.T.);
#88=ORIENTED_EDGE('',*,*,#198,.T.);
#89=ORIENTED_EDGE('',*,*,#199,.F.);
#90=ORIENTED_EDGE('',*,*,#181,.T.);
#91=ORIENTED_EDGE('',*,*,#201,.F.);
#92=ORIENTED_EDGE('',*,*,#193,.T.);
#93=ORIENTED_EDGE('',*,*,#202,.T.);
#94=ORIENTED_EDGE('',*,*,#185,.F.);
#95=ORIENTED_EDGE('',*,*,#203,.F.);
#96=ORIENTED_EDGE('',*,*,#197,.F.);
#97=ORIENTED_EDGE('',*,*,#204,.T.);
#98=ORIENTED_EDGE('',*,*,#191,.F.);
#99=ORIENTED_EDGE('',*,*,#199,.T.);
#100=ORIENTED_EDGE('',*,*,#206,.T.);
#101=ORIENTED_EDGE('',*,*,#200,.F.);
#102=ORIENTED_EDGE('',*,*,#183,.T.);
#103=ORIENTED_EDGE('',*,*,#187,.T.);
#104=ORIENTED_EDGE('',*,*,#186,.T.);
#105=ORIENTED_EDGE('',*,*,#184,.F.);
#106=ORIENTED_EDGE('',*,*,#182,.F.);
#107=ORIENTED_EDGE('',*,*,#201,.T.);
#108=ORIENTED_EDGE('',*,*,#188,.F.);
#109=ORIENTED_EDGE('',*,*,#202,.F.);
#110=ORIENTED_EDGE('',*,*,#195,.T.);
#111=ORIENTED_EDGE('',*,*,#192,.T.);
#112=ORIENTED_EDGE('',*,*,#189,.T.);
#113=ORIENTED_EDGE('',*,*,#196,.F.);
#114=ORIENTED_EDGE('',*,*,#194,.F.);
#115=ORIENTED_EDGE('',*,*,#203,.T.);
#116=ORIENTED_EDGE('',*,*,#190,.F.);
#117=ORIENTED_EDGE('',*,*,#204,.F.);
#118=ORIENTED_EDGE('',*,*,#205,.F.);
#119=ORIENTED_EDGE('',*,*,#205,.T.);
#120=ORIENTED_EDGE('',*,*,#197,.T.);
#121=ORIENTED_EDGE('',*,*,#206,.F.);
#122=ORIENTED_EDGE('',*,*,#198,.F.);
#123=ORIENTED_EDGE('',*,*,#208,.F.);
#124=ORIENTED_EDGE('',*,*,#195,.F.);
#125=ORIENTED_EDGE('',*,*,#207,.T.);
#126=ORIENTED_EDGE('',*,*,#196,.T.);
#127=ORIENTED_EDGE('',*,*,#207,.F.);
#128=ORIENTED_EDGE('',*,*,#193,.F.);
#129=ORIENTED_EDGE('',*,*,#208,.T.);
#130=ORIENTED_EDGE('',*,*,#194,.T.);
#131=ORIENTED_EDGE('',*,*,#210,.F.);
#132=ORIENTED_EDGE('',*,*,#192,.F.);
#133=ORIENTED_EDGE('',*,*,#209,.T.);
#134=ORIENTED_EDGE('',*,*,#191,.T.);
#135=ORIENTED_EDGE('',*,*,#209,.F.);
#136=ORIENTED_EDGE('',*,*,#189,.F.);
#137=ORIENTED_EDGE('',*,*,#210,.T.);
#138=ORIENTED_EDGE('',*,*,#190,.T.);
#139=ORIENTED_EDGE('',*,*,#212,.T.);
#140=ORIENTED_EDGE('',*,*,#187,.F.);
#141=ORIENTED_EDGE('',*,*,#211,.F.);
#142=ORIENTED_EDGE('',*,*,#188,.T.);
#143=ORIENTED_EDGE('',*,*,#211,.T.);
#144=ORIENTED_EDGE('',*,*,#186,.F.);
#145=ORIENTED_EDGE('',*,*,#212,.F.);
#146=ORIENTED_EDGE('',*,*,#185,.T.);
#147=ORIENTED_EDGE('',*,*,#214,.F.);
#148=ORIENTED_EDGE('',*,*,#183,.F.);
#149=ORIENTED_EDGE('',*,*,#213,.T.);
#150=ORIENTED_EDGE('',*,*,#184,.T.);
#151=ORIENTED_EDGE('',*,*,#213,.F.);
#152=ORIENTED_EDGE('',*,*,#181,.F.);
#153=ORIENTED_EDGE('',*,*,#214,.T.);
#154=ORIENTED_EDGE('',*,*,#182,.T.);
#155=CYLINDRICAL_SURFACE('',#320,12.4);
#156=CYLINDRICAL_SURFACE('',#321,9.8);
#157=CYLINDRICAL_SURFACE('',#322,8.);
#158=CYLINDRICAL_SURFACE('',#323,12.4);
#159=CYLINDRICAL_SURFACE('',#325,9.8);
#160=CYLINDRICAL_SURFACE('',#327,8.);
#161=STYLED_ITEM('',(#162),#17);
#162=PRESENTATION_STYLE_ASSIGNMENT((#163));
#163=SURFACE_STYLE_USAGE(.BOTH.,#164);
#164=SURFACE_SIDE_STYLE('',(#165));
#165=SURFACE_STYLE_FILL_AREA(#166);
#166=FILL_AREA_STYLE('',(#167));
#167=FILL_AREA_STYLE_COLOUR('',#168);
#168=COLOUR_RGB('Colour',0.0313725490196078,0.501960784313725,0.862745098039216);
#169=LINE('',#483,#175);
#170=LINE('',#484,#176);
#171=LINE('',#485,#177);
#172=LINE('',#486,#178);
#173=LINE('',#487,#179);
#174=LINE('',#488,#180);
#175=VECTOR('',#379,2.19999999999887);
#176=VECTOR('',#380,2.19999999999887);
#177=VECTOR('',#381,9.400000000001);
#178=VECTOR('',#382,9.400000000001);
#179=VECTOR('',#383,13.2);
#180=VECTOR('',#384,13.2);
#181=EDGE_CURVE('',#262,#261,#215,.T.);
#182=EDGE_CURVE('',#260,#259,#216,.T.);
#183=EDGE_CURVE('',#261,#262,#217,.T.);
#184=EDGE_CURVE('',#259,#260,#218,.T.);
#185=EDGE_CURVE('',#258,#257,#219,.T.);
#186=EDGE_CURVE('',#256,#255,#220,.T.);
#187=EDGE_CURVE('',#255,#256,#221,.T.);
#188=EDGE_CURVE('',#257,#258,#222,.T.);
#189=EDGE_CURVE('',#254,#253,#223,.T.);
#190=EDGE_CURVE('',#252,#251,#224,.T.);
#191=EDGE_CURVE('',#251,#252,#225,.T.);
#192=EDGE_CURVE('',#253,#254,#226,.T.);
#193=EDGE_CURVE('',#250,#249,#227,.T.);
#194=EDGE_CURVE('',#248,#247,#228,.T.);
#195=EDGE_CURVE('',#249,#250,#229,.T.);
#196=EDGE_CURVE('',#247,#248,#230,.T.);
#197=EDGE_CURVE('',#246,#245,#231,.T.);
#198=EDGE_CURVE('',#244,#243,#232,.T.);
#199=EDGE_CURVE('',#262,#243,#169,.T.);
#200=EDGE_CURVE('',#261,#244,#170,.T.);
#201=EDGE_CURVE('',#250,#258,#171,.T.);
#202=EDGE_CURVE('',#249,#257,#172,.T.);
#203=EDGE_CURVE('',#245,#251,#173,.T.);
#204=EDGE_CURVE('',#246,#252,#174,.T.);
#205=EDGE_CURVE('',#245,#246,#233,.T.);
#206=EDGE_CURVE('',#243,#244,#234,.T.);
#207=EDGE_CURVE('',#249,#247,#235,.T.);
#208=EDGE_CURVE('',#250,#248,#236,.T.);
#209=EDGE_CURVE('',#253,#251,#237,.T.);
#210=EDGE_CURVE('',#254,#252,#238,.T.);
#211=EDGE_CURVE('',#257,#255,#239,.T.);
#212=EDGE_CURVE('',#258,#256,#240,.T.);
#213=EDGE_CURVE('',#261,#259,#241,.T.);
#214=EDGE_CURVE('',#262,#260,#242,.T.);
#215=CIRCLE('',#292,12.4);
#216=CIRCLE('',#293,11.6);
#217=CIRCLE('',#294,12.4);
#218=CIRCLE('',#295,11.6);
#219=CIRCLE('',#296,9.8);
#220=CIRCLE('',#297,10.6);
#221=CIRCLE('',#298,10.6);
#222=CIRCLE('',#299,9.8);
#223=CIRCLE('',#300,8.8);
#224=CIRCLE('',#301,8.);
#225=CIRCLE('',#302,8.);
#226=CIRCLE('',#303,8.8);
#227=CIRCLE('',#304,9.8);
#228=CIRCLE('',#305,8.99999999999999);
#229=CIRCLE('',#306,9.8);
#230=CIRCLE('',#307,9.);
#231=CIRCLE('',#308,8.);
#232=CIRCLE('',#309,12.4);
#233=CIRCLE('',#310,8.);
#234=CIRCLE('',#311,12.4);
#235=CIRCLE('',#312,0.8);
#236=CIRCLE('',#313,0.8);
#237=CIRCLE('',#314,0.8);
#238=CIRCLE('',#315,0.8);
#239=CIRCLE('',#316,0.8);
#240=CIRCLE('',#317,0.8);
#241=CIRCLE('',#318,0.8);
#242=CIRCLE('',#319,0.8);
#243=VERTEX_POINT('',#445);
#244=VERTEX_POINT('',#446);
#245=VERTEX_POINT('',#447);
#246=VERTEX_POINT('',#448);
#247=VERTEX_POINT('',#449);
#248=VERTEX_POINT('',#450);
#249=VERTEX_POINT('',#451);
#250=VERTEX_POINT('',#452);
#251=VERTEX_POINT('',#453);
#252=VERTEX_POINT('',#454);
#253=VERTEX_POINT('',#455);
#254=VERTEX_POINT('',#456);
#255=VERTEX_POINT('',#457);
#256=VERTEX_POINT('',#458);
#257=VERTEX_POINT('',#459);
#258=VERTEX_POINT('',#460);
#259=VERTEX_POINT('',#461);
#260=VERTEX_POINT('',#462);
#261=VERTEX_POINT('',#463);
#262=VERTEX_POINT('',#464);
#263=PRODUCT_CATEGORY_RELATIONSHIP('','',#267,#265);
#264=PRODUCT_CATEGORY_RELATIONSHIP('','',#268,#266);
#265=PRODUCT_RELATED_PRODUCT_CATEGORY('detail','',(#280));
#266=PRODUCT_RELATED_PRODUCT_CATEGORY('detail','',(#281));
#267=PRODUCT_CATEGORY('part','');
#268=PRODUCT_CATEGORY('part','');
#269=SHAPE_DEFINITION_REPRESENTATION(#271,#288);
#270=SHAPE_DEFINITION_REPRESENTATION(#272,#289);
#271=PRODUCT_DEFINITION_SHAPE('','Shape',#274);
#272=PRODUCT_DEFINITION_SHAPE('','Shape',#275);
#273=PRODUCT_DEFINITION_SHAPE('','',#12);
#274=PRODUCT_DEFINITION('','',#276,#278);
#275=PRODUCT_DEFINITION('','',#277,#279);
#276=PRODUCT_DEFINITION_FORMATION('','',#280);
#277=PRODUCT_DEFINITION_FORMATION('','',#281);
#278=PRODUCT_DEFINITION_CONTEXT('part definition',#286,'');
#279=PRODUCT_DEFINITION_CONTEXT('part definition',#287,'');
#280=PRODUCT('0393-27-06','0393-27-06','not specified',(#282));
#281=PRODUCT('0393-27-06','0393-27-06','not specified',(#283));
#282=PRODUCT_CONTEXT('',#286,'mechanical');
#283=PRODUCT_CONTEXT('',#287,'mechanical');
#284=APPLICATION_PROTOCOL_DEFINITION('Draft International Standard',
'automotive_design',1997,#286);
#285=APPLICATION_PROTOCOL_DEFINITION('Draft International Standard',
'automotive_design',1997,#287);
#286=APPLICATION_CONTEXT('automotive design');
#287=APPLICATION_CONTEXT('automotive design');
#288=SHAPE_REPRESENTATION('0393-27-06',(#290,#338),#518);
#289=SHAPE_REPRESENTATION('0393-27-06',(#291),#519);
#290=AXIS2_PLACEMENT_3D('',#443,#339,#340);
#291=AXIS2_PLACEMENT_3D('',#444,#341,#342);
#292=AXIS2_PLACEMENT_3D('',#465,#343,#344);
#293=AXIS2_PLACEMENT_3D('',#466,#345,#346);
#294=AXIS2_PLACEMENT_3D('',#467,#347,#348);
#295=AXIS2_PLACEMENT_3D('',#468,#349,#350);
#296=AXIS2_PLACEMENT_3D('',#469,#351,#352);
#297=AXIS2_PLACEMENT_3D('',#470,#353,#354);
#298=AXIS2_PLACEMENT_3D('',#471,#355,#356);
#299=AXIS2_PLACEMENT_3D('',#472,#357,#358);
#300=AXIS2_PLACEMENT_3D('',#473,#359,#360);
#301=AXIS2_PLACEMENT_3D('',#474,#361,#362);
#302=AXIS2_PLACEMENT_3D('',#475,#363,#364);
#303=AXIS2_PLACEMENT_3D('',#476,#365,#366);
#304=AXIS2_PLACEMENT_3D('',#477,#367,#368);
#305=AXIS2_PLACEMENT_3D('',#478,#369,#370);
#306=AXIS2_PLACEMENT_3D('',#479,#371,#372);
#307=AXIS2_PLACEMENT_3D('',#480,#373,#374);
#308=AXIS2_PLACEMENT_3D('',#481,#375,#376);
#309=AXIS2_PLACEMENT_3D('',#482,#377,#378);
#310=AXIS2_PLACEMENT_3D('',#489,#385,#386);
#311=AXIS2_PLACEMENT_3D('',#490,#387,#388);
#312=AXIS2_PLACEMENT_3D('',#491,#389,#390);
#313=AXIS2_PLACEMENT_3D('',#492,#391,#392);
#314=AXIS2_PLACEMENT_3D('',#493,#393,#394);
#315=AXIS2_PLACEMENT_3D('',#494,#395,#396);
#316=AXIS2_PLACEMENT_3D('',#495,#397,#398);
#317=AXIS2_PLACEMENT_3D('',#496,#399,#400);
#318=AXIS2_PLACEMENT_3D('',#497,#401,#402);
#319=AXIS2_PLACEMENT_3D('',#498,#403,#404);
#320=AXIS2_PLACEMENT_3D('',#499,#405,#406);
#321=AXIS2_PLACEMENT_3D('',#500,#407,#408);
#322=AXIS2_PLACEMENT_3D('',#501,#409,#410);
#323=AXIS2_PLACEMENT_3D('',#502,#411,#412);
#324=AXIS2_PLACEMENT_3D('',#503,#413,#414);
#325=AXIS2_PLACEMENT_3D('',#504,#415,#416);
#326=AXIS2_PLACEMENT_3D('',#505,#417,#418);
#327=AXIS2_PLACEMENT_3D('',#506,#419,#420);
#328=AXIS2_PLACEMENT_3D('',#507,#421,#422);
#329=AXIS2_PLACEMENT_3D('',#508,#423,#424);
#330=AXIS2_PLACEMENT_3D('',#509,#425,#426);
#331=AXIS2_PLACEMENT_3D('',#510,#427,#428);
#332=AXIS2_PLACEMENT_3D('',#511,#429,#430);
#333=AXIS2_PLACEMENT_3D('',#512,#431,#432);
#334=AXIS2_PLACEMENT_3D('',#513,#433,#434);
#335=AXIS2_PLACEMENT_3D('',#514,#435,#436);
#336=AXIS2_PLACEMENT_3D('',#515,#437,#438);
#337=AXIS2_PLACEMENT_3D('',#516,#439,#440);
#338=AXIS2_PLACEMENT_3D('',#517,#441,#442);
#339=DIRECTION('',(0.,0.,1.));
#340=DIRECTION('',(1.,0.,0.));
#341=DIRECTION('',(0.,0.,1.));
#342=DIRECTION('',(1.,0.,0.));
#343=DIRECTION('',(0.,-1.,0.));
#344=DIRECTION('',(0.,0.,-1.));
#345=DIRECTION('',(0.,-1.,0.));
#346=DIRECTION('',(0.,0.,-1.));
#347=DIRECTION('',(0.,-1.,0.));
#348=DIRECTION('',(0.,0.,1.));
#349=DIRECTION('',(0.,-1.,0.));
#350=DIRECTION('',(0.,0.,1.));
#351=DIRECTION('',(0.,-1.,0.));
#352=DIRECTION('',(0.,0.,-1.));
#353=DIRECTION('',(0.,-1.,0.));
#354=DIRECTION('',(0.,0.,-1.));
#355=DIRECTION('',(0.,-1.,0.));
#356=DIRECTION('',(0.,0.,1.));
#357=DIRECTION('',(0.,-1.,0.));
#358=DIRECTION('',(0.,0.,1.));
#359=DIRECTION('',(0.,-1.,0.));
#360=DIRECTION('',(0.,0.,1.));
#361=DIRECTION('',(0.,-1.,0.));
#362=DIRECTION('',(0.,0.,1.));
#363=DIRECTION('',(0.,-1.,0.));
#364=DIRECTION('',(0.,0.,-1.));
#365=DIRECTION('',(0.,-1.,0.));
#366=DIRECTION('',(0.,0.,-1.));
#367=DIRECTION('',(0.,-1.,0.));
#368=DIRECTION('',(0.,0.,-1.));
#369=DIRECTION('',(0.,-1.,0.));
#370=DIRECTION('',(0.,0.,-1.));
#371=DIRECTION('',(0.,-1.,0.));
#372=DIRECTION('',(0.,0.,1.));
#373=DIRECTION('',(0.,-1.,0.));
#374=DIRECTION('',(0.,0.,1.));
#375=DIRECTION('',(0.,1.,0.));
#376=DIRECTION('',(0.,0.,1.));
#377=DIRECTION('',(0.,1.,0.));
#378=DIRECTION('',(0.,0.,1.));
#379=DIRECTION('',(0.,1.,0.));
#380=DIRECTION('',(0.,1.,0.));
#381=DIRECTION('',(0.,1.,0.));
#382=DIRECTION('',(0.,1.,0.));
#383=DIRECTION('',(0.,-1.,0.));
#384=DIRECTION('',(0.,-1.,0.));
#385=DIRECTION('',(0.,1.,0.));
#386=DIRECTION('',(0.,0.,-1.));
#387=DIRECTION('',(0.,1.,0.));
#388=DIRECTION('',(0.,0.,-1.));
#389=DIRECTION('',(1.,0.,0.));
#390=DIRECTION('',(0.,0.,1.));
#391=DIRECTION('',(-1.,0.,0.));
#392=DIRECTION('',(0.,0.,-1.));
#393=DIRECTION('',(-1.,0.,0.));
#394=DIRECTION('',(0.,-1.,0.));
#395=DIRECTION('',(1.,0.,0.));
#396=DIRECTION('',(0.,-1.,0.));
#397=DIRECTION('',(1.,0.,0.));
#398=DIRECTION('',(0.,0.,-1.));
#399=DIRECTION('',(-1.,0.,0.));
#400=DIRECTION('',(0.,0.,1.));
#401=DIRECTION('',(1.,0.,0.));
#402=DIRECTION('',(0.,0.,1.));
#403=DIRECTION('',(-1.,0.,0.));
#404=DIRECTION('',(0.,0.,-1.));
#405=DIRECTION('',(0.,-1.,0.));
#406=DIRECTION('',(0.,0.,-1.));
#407=DIRECTION('',(0.,-1.,0.));
#408=DIRECTION('',(0.,0.,-1.));
#409=DIRECTION('',(0.,-1.,0.));
#410=DIRECTION('',(0.,0.,-1.));
#411=DIRECTION('',(0.,-1.,0.));
#412=DIRECTION('',(0.,0.,1.));
#413=DIRECTION('',(0.,-1.,0.));
#414=DIRECTION('',(-1.,0.,0.));
#415=DIRECTION('',(0.,-1.,0.));
#416=DIRECTION('',(0.,0.,1.));
#417=DIRECTION('',(0.,-1.,0.));
#418=DIRECTION('',(-1.,0.,0.));
#419=DIRECTION('',(0.,-1.,0.));
#420=DIRECTION('',(0.,0.,1.));
#421=DIRECTION('',(0.,1.,0.));
#422=DIRECTION('',(1.,0.,0.));
#423=DIRECTION('',(0.,-1.,0.));
#424=DIRECTION('',(0.,0.,1.));
#425=DIRECTION('',(0.,-1.,0.));
#426=DIRECTION('',(0.,0.,-1.));
#427=DIRECTION('',(0.,-1.,0.));
#428=DIRECTION('',(0.,0.,-1.));
#429=DIRECTION('',(0.,-1.,0.));
#430=DIRECTION('',(0.,0.,1.));
#431=DIRECTION('',(0.,-1.,0.));
#432=DIRECTION('',(0.,0.,1.));
#433=DIRECTION('',(0.,-1.,0.));
#434=DIRECTION('',(0.,0.,-1.));
#435=DIRECTION('',(0.,-1.,0.));
#436=DIRECTION('',(0.,0.,1.));
#437=DIRECTION('',(0.,-1.,0.));
#438=DIRECTION('',(0.,0.,-1.));
#439=DIRECTION('',(0.,0.,1.));
#440=DIRECTION('',(1.,0.,0.));
#441=DIRECTION('',(0.,0.,1.));
#442=DIRECTION('',(1.,0.,0.));
#443=CARTESIAN_POINT('',(0.,0.,0.));
#444=CARTESIAN_POINT('',(0.,0.,0.));
#445=CARTESIAN_POINT('',(273.364999736488,-62.4999916869572,-12.4000002096028));
#446=CARTESIAN_POINT('',(273.364999736488,-62.4999916869572,12.3999997903972));
#447=CARTESIAN_POINT('',(273.364999736488,-62.4999916869571,-8.0000002096028));
#448=CARTESIAN_POINT('',(273.364999736488,-62.4999916869571,7.9999997903972));
#449=CARTESIAN_POINT('',(273.364999736488,-76.4999916869571,8.99999979039719));
#450=CARTESIAN_POINT('',(273.364999736488,-76.4999916869571,-9.0000002096028));
#451=CARTESIAN_POINT('',(273.364999736488,-75.6999916869571,9.79999979039719));
#452=CARTESIAN_POINT('',(273.364999736488,-75.6999916869571,-9.8000002096028));
#453=CARTESIAN_POINT('',(273.364999736488,-75.6999916869571,-8.0000002096028));
#454=CARTESIAN_POINT('',(273.364999736488,-75.6999916869571,7.99999979039719));
#455=CARTESIAN_POINT('',(273.364999736488,-76.4999916869571,-8.8000002096028));
#456=CARTESIAN_POINT('',(273.364999736488,-76.4999916869571,8.7999997903972));
#457=CARTESIAN_POINT('',(273.364999736488,-65.499991686957,10.5999997903977));
#458=CARTESIAN_POINT('',(273.364999736488,-65.4999916869564,-10.6000002096023));
#459=CARTESIAN_POINT('',(273.364999736488,-66.2999916869566,9.79999979039719));
#460=CARTESIAN_POINT('',(273.364999736488,-66.2999916869566,-9.80000020960258));
#461=CARTESIAN_POINT('',(273.364999736488,-65.4999916869571,11.5999997903972));
#462=CARTESIAN_POINT('',(273.364999736488,-65.4999916869564,-11.6000002096028));
#463=CARTESIAN_POINT('',(273.364999736488,-64.6999916869566,12.3999997903972));
#464=CARTESIAN_POINT('',(273.364999736488,-64.6999916869566,-12.4000002096028));
#465=CARTESIAN_POINT('',(273.364999736488,-64.6999916869561,-2.0960280373521E-07));
#466=CARTESIAN_POINT('',(273.364999736488,-65.4999916869566,-2.09602806071732E-07));
#467=CARTESIAN_POINT('',(273.364999736488,-64.6999916869571,-2.0960280373521E-07));
#468=CARTESIAN_POINT('',(273.364999736488,-65.4999916869566,-2.09602806071732E-07));
#469=CARTESIAN_POINT('',(273.364999736488,-66.2999916869561,-2.0960280373521E-07));
#470=CARTESIAN_POINT('',(273.364999736488,-65.4999916869566,-2.09602326455385E-07));
#471=CARTESIAN_POINT('',(273.364999736488,-65.4999916869566,-2.09602326455385E-07));
#472=CARTESIAN_POINT('',(273.364999736488,-66.2999916869571,-2.0960280373521E-07));
#473=CARTESIAN_POINT('',(273.364999736488,-76.4999916869571,-2.09602797738001E-07));
#474=CARTESIAN_POINT('',(273.364999736488,-75.6999916869571,-2.0960280373521E-07));
#475=CARTESIAN_POINT('',(273.364999736488,-75.6999916869571,-2.0960280373521E-07));
#476=CARTESIAN_POINT('',(273.364999736488,-76.4999916869571,-2.09602797738001E-07));
#477=CARTESIAN_POINT('',(273.364999736488,-75.6999916869571,-2.0960280373521E-07));
#478=CARTESIAN_POINT('',(273.364999736488,-76.4999916869571,-2.09602804843428E-07));
#479=CARTESIAN_POINT('',(273.364999736488,-75.6999916869572,-2.0960280373521E-07));
#480=CARTESIAN_POINT('',(273.364999736488,-76.4999916869571,-2.09602804843428E-07));
#481=CARTESIAN_POINT('',(273.364999736488,-62.4999916869571,-2.0960280373521E-07));
#482=CARTESIAN_POINT('',(273.364999736488,-62.4999916869572,-2.0960280373521E-07));
#483=CARTESIAN_POINT('',(273.364999736488,-64.6999916869561,-12.4000002096028));
#484=CARTESIAN_POINT('',(273.364999736488,-64.6999916869561,12.3999997903972));
#485=CARTESIAN_POINT('',(273.364999736488,-75.6999916869571,-9.80000020960279));
#486=CARTESIAN_POINT('',(273.364999736488,-75.6999916869571,9.79999979039719));
#487=CARTESIAN_POINT('',(273.364999736488,-62.4999916869571,-8.0000002096028));
#488=CARTESIAN_POINT('',(273.364999736488,-62.4999916869571,7.9999997903972));
#489=CARTESIAN_POINT('',(273.364999736488,-62.4999916869571,-2.0960280373521E-07));
#490=CARTESIAN_POINT('',(273.364999736488,-62.4999916869572,-2.0960280373521E-07));
#491=CARTESIAN_POINT('',(273.364999736488,-75.6999916869571,8.99999979039719));
#492=CARTESIAN_POINT('',(273.364999736488,-75.6999916869571,-9.0000002096028));
#493=CARTESIAN_POINT('',(273.364999736488,-75.6999916869571,-8.80000020960279));
#494=CARTESIAN_POINT('',(273.364999736488,-75.6999916869571,8.79999979039719));
#495=CARTESIAN_POINT('',(273.364999736488,-66.2999916869566,10.5999997903976));
#496=CARTESIAN_POINT('',(273.364999736488,-66.2999916869566,-10.6000002096024));
#497=CARTESIAN_POINT('',(273.364999736488,-64.6999916869566,11.5999997903972));
#498=CARTESIAN_POINT('',(273.364999736488,-64.6999916869566,-11.6000002096028));
#499=CARTESIAN_POINT('',(273.364999736488,-65.4999916869572,-2.0960280373521E-07));
#500=CARTESIAN_POINT('',(273.364999736488,-76.4999916869571,-2.0960280373521E-07));
#501=CARTESIAN_POINT('',(273.364999736488,-62.4999916869571,-2.0960280373521E-07));
#502=CARTESIAN_POINT('',(273.364999736488,-65.4999916869572,-2.0960280373521E-07));
#503=CARTESIAN_POINT('',(285.764999736488,-65.4999916869571,12.3999997903972));
#504=CARTESIAN_POINT('',(273.364999736488,-76.4999916869571,-2.0960280373521E-07));
#505=CARTESIAN_POINT('',(283.164999736488,-76.4999916869571,9.79999979039721));
#506=CARTESIAN_POINT('',(273.364999736488,-62.4999916869571,-2.0960280373521E-07));
#507=CARTESIAN_POINT('',(260.716999736488,-62.4999916869572,12.6479997903972));
#508=CARTESIAN_POINT('',(273.364999736488,-75.6999916869571,-2.09602804019291E-07));
#509=CARTESIAN_POINT('',(273.364999736488,-75.6999916869571,-2.09602804019291E-07));
#510=CARTESIAN_POINT('',(273.364999736488,-75.6999916869571,-2.09602799047873E-07));
#511=CARTESIAN_POINT('',(273.364999736488,-75.6999916869571,-2.09602799047873E-07));
#512=CARTESIAN_POINT('',(273.364999736488,-66.2999916869566,-2.09602361180814E-07));
#513=CARTESIAN_POINT('',(273.364999736488,-66.2999916869566,-2.09602361180814E-07));
#514=CARTESIAN_POINT('',(273.364999736488,-64.6999916869566,-2.09602769025061E-07));
#515=CARTESIAN_POINT('',(273.364999736488,-64.6999916869566,-2.09602769025061E-07));
#516=CARTESIAN_POINT('',(0.,0.,0.));
#517=CARTESIAN_POINT('',(0.,0.,0.));
#518=(
GEOMETRIC_REPRESENTATION_CONTEXT(3)
GLOBAL_UNCERTAINTY_ASSIGNED_CONTEXT((#521))
GLOBAL_UNIT_ASSIGNED_CONTEXT((#530,#527,#524))
REPRESENTATION_CONTEXT('','')
);
#519=(
GEOMETRIC_REPRESENTATION_CONTEXT(3)
GLOBAL_UNCERTAINTY_ASSIGNED_CONTEXT((#522))
GLOBAL_UNIT_ASSIGNED_CONTEXT((#531,#528,#525))
REPRESENTATION_CONTEXT('','')
);
#520=(
GEOMETRIC_REPRESENTATION_CONTEXT(3)
GLOBAL_UNCERTAINTY_ASSIGNED_CONTEXT((#523))
GLOBAL_UNIT_ASSIGNED_CONTEXT((#532,#529,#526))
REPRESENTATION_CONTEXT('','')
);
#521=UNCERTAINTY_MEASURE_WITH_UNIT(LENGTH_MEASURE(0.001),#530,'TOL_CRV',
'CONFUSED CURVE UNCERTAINTY');
#522=UNCERTAINTY_MEASURE_WITH_UNIT(LENGTH_MEASURE(0.001),#531,'TOL_CRV',
'CONFUSED CURVE UNCERTAINTY');
#523=UNCERTAINTY_MEASURE_WITH_UNIT(LENGTH_MEASURE(0.001),#532,'TOL_CRV',
'CONFUSED CURVE UNCERTAINTY');
#524=(
NAMED_UNIT(*)
SI_UNIT($,.STERADIAN.)
SOLID_ANGLE_UNIT()
);
#525=(
NAMED_UNIT(*)
SI_UNIT($,.STERADIAN.)
SOLID_ANGLE_UNIT()
);
#526=(
NAMED_UNIT(*)
SI_UNIT($,.STERADIAN.)
SOLID_ANGLE_UNIT()
);
#527=(
NAMED_UNIT(*)
PLANE_ANGLE_UNIT()
SI_UNIT($,.RADIAN.)
);
#528=(
NAMED_UNIT(*)
PLANE_ANGLE_UNIT()
SI_UNIT($,.RADIAN.)
);
#529=(
NAMED_UNIT(*)
PLANE_ANGLE_UNIT()
SI_UNIT($,.RADIAN.)
);
#530=(
LENGTH_UNIT()
NAMED_UNIT(*)
SI_UNIT(.MILLI.,.METRE.)
);
#531=(
LENGTH_UNIT()
NAMED_UNIT(*)
SI_UNIT(.MILLI.,.METRE.)
);
#532=(
LENGTH_UNIT()
NAMED_UNIT(*)
SI_UNIT(.MILLI.,.METRE.)
);
ENDSEC;
END-ISO-10303-21;
