ISO-10303-21;
HEADER;
/* Generated by software containing ST-Developer
 * from STEP Tools, Inc. (www.steptools.com) 
 */
/* OPTION: using custom schema-name function */

FILE_DESCRIPTION(
/* description */ ('VariCAD 2015-3.01 AP-214'),
/* implementation_level */ '2;1');

FILE_NAME(
/* name */ '0353-10-24.stp',
/* time_stamp */ '2015-12-17T23:25:48-07:00',
/* author */ (''),
/* organization */ (''),
/* preprocessor_version */ 'ST-DEVELOPER v14',
/* originating_system */ 'VariCAD 2015-3.01; kernel version (20130303)',

/* authorisation */ '');

FILE_SCHEMA (('AUTOMOTIVE_DESIGN'));
ENDSEC;

DATA;
#10=MECHANICAL_DESIGN_GEOMETRIC_PRESENTATION_REPRESENTATION('',(#131,#19,
#20,#21,#22,#23,#24,#25,#26),#450);
#11=CONTEXT_DEPENDENT_SHAPE_REPRESENTATION(#13,#271);
#12=NEXT_ASSEMBLY_USAGE_OCCURRENCE('','','',#272,#273,'');
#13=(
REPRESENTATION_RELATIONSHIP('','',#286,#287)
REPRESENTATION_RELATIONSHIP_WITH_TRANSFORMATION(#14)
SHAPE_REPRESENTATION_RELATIONSHIP()
);
#14=ITEM_DEFINED_TRANSFORMATION('','',#319,#289);
#15=SHAPE_REPRESENTATION_RELATIONSHIP('','',#287,#16);
#16=ADVANCED_BREP_SHAPE_REPRESENTATION('',(#17,#318),#449);
#17=MANIFOLD_SOLID_BREP('',#18);
#18=CLOSED_SHELL('',(#35,#36,#37,#38,#39,#40,#41,#42,#43,#44,#45,#46));
#19=OVER_RIDING_STYLED_ITEM('',(#133),#39,#131);
#20=OVER_RIDING_STYLED_ITEM('',(#134),#40,#131);
#21=OVER_RIDING_STYLED_ITEM('',(#135),#41,#131);
#22=OVER_RIDING_STYLED_ITEM('',(#136),#42,#131);
#23=OVER_RIDING_STYLED_ITEM('',(#137),#43,#131);
#24=OVER_RIDING_STYLED_ITEM('',(#138),#44,#131);
#25=OVER_RIDING_STYLED_ITEM('',(#139),#45,#131);
#26=OVER_RIDING_STYLED_ITEM('',(#140),#46,#131);
#27=FACE_BOUND('',#60,.F.);
#28=FACE_BOUND('',#63,.F.);
#29=FACE_BOUND('',#69,.F.);
#30=FACE_BOUND('',#73,.F.);
#31=PLANE('',#307);
#32=PLANE('',#309);
#33=PLANE('',#314);
#34=PLANE('',#317);
#35=ADVANCED_FACE('',(#47),#123,.T.);
#36=ADVANCED_FACE('',(#27,#48),#31,.T.);
#37=ADVANCED_FACE('',(#49),#124,.T.);
#38=ADVANCED_FACE('',(#28,#50),#32,.T.);
#39=ADVANCED_FACE('',(#51),#125,.F.);
#40=ADVANCED_FACE('',(#52),#126,.F.);
#41=ADVANCED_FACE('',(#53),#127,.F.);
#42=ADVANCED_FACE('',(#54),#128,.F.);
#43=ADVANCED_FACE('',(#29,#55),#33,.T.);
#44=ADVANCED_FACE('',(#56),#129,.F.);
#45=ADVANCED_FACE('',(#57),#130,.F.);
#46=ADVANCED_FACE('',(#30,#58),#34,.T.);
#47=FACE_OUTER_BOUND('',#59,.F.);
#48=FACE_OUTER_BOUND('',#61,.F.);
#49=FACE_OUTER_BOUND('',#62,.F.);
#50=FACE_OUTER_BOUND('',#64,.F.);
#51=FACE_OUTER_BOUND('',#65,.F.);
#52=FACE_OUTER_BOUND('',#66,.F.);
#53=FACE_OUTER_BOUND('',#67,.F.);
#54=FACE_OUTER_BOUND('',#68,.F.);
#55=FACE_OUTER_BOUND('',#70,.F.);
#56=FACE_OUTER_BOUND('',#71,.F.);
#57=FACE_OUTER_BOUND('',#72,.F.);
#58=FACE_OUTER_BOUND('',#74,.F.);
#59=EDGE_LOOP('',(#75,#76,#77,#78));
#60=EDGE_LOOP('',(#79,#80));
#61=EDGE_LOOP('',(#81,#82));
#62=EDGE_LOOP('',(#83,#84,#85,#86));
#63=EDGE_LOOP('',(#87,#88));
#64=EDGE_LOOP('',(#89,#90));
#65=EDGE_LOOP('',(#91,#92,#93,#94));
#66=EDGE_LOOP('',(#95,#96,#97,#98));
#67=EDGE_LOOP('',(#99,#100,#101,#102));
#68=EDGE_LOOP('',(#103,#104,#105,#106));
#69=EDGE_LOOP('',(#107,#108));
#70=EDGE_LOOP('',(#109,#110));
#71=EDGE_LOOP('',(#111,#112,#113,#114));
#72=EDGE_LOOP('',(#115,#116,#117,#118));
#73=EDGE_LOOP('',(#119,#120));
#74=EDGE_LOOP('',(#121,#122));
#75=ORIENTED_EDGE('',*,*,#213,.T.);
#76=ORIENTED_EDGE('',*,*,#215,.F.);
#77=ORIENTED_EDGE('',*,*,#214,.T.);
#78=ORIENTED_EDGE('',*,*,#216,.T.);
#79=ORIENTED_EDGE('',*,*,#208,.T.);
#80=ORIENTED_EDGE('',*,*,#207,.T.);
#81=ORIENTED_EDGE('',*,*,#217,.F.);
#82=ORIENTED_EDGE('',*,*,#213,.F.);
#83=ORIENTED_EDGE('',*,*,#215,.T.);
#84=ORIENTED_EDGE('',*,*,#217,.T.);
#85=ORIENTED_EDGE('',*,*,#216,.F.);
#86=ORIENTED_EDGE('',*,*,#218,.T.);
#87=ORIENTED_EDGE('',*,*,#212,.T.);
#88=ORIENTED_EDGE('',*,*,#211,.T.);
#89=ORIENTED_EDGE('',*,*,#218,.F.);
#90=ORIENTED_EDGE('',*,*,#214,.F.);
#91=ORIENTED_EDGE('',*,*,#220,.F.);
#92=ORIENTED_EDGE('',*,*,#210,.T.);
#93=ORIENTED_EDGE('',*,*,#219,.T.);
#94=ORIENTED_EDGE('',*,*,#206,.T.);
#95=ORIENTED_EDGE('',*,*,#219,.F.);
#96=ORIENTED_EDGE('',*,*,#209,.T.);
#97=ORIENTED_EDGE('',*,*,#220,.T.);
#98=ORIENTED_EDGE('',*,*,#205,.T.);
#99=ORIENTED_EDGE('',*,*,#212,.F.);
#100=ORIENTED_EDGE('',*,*,#223,.F.);
#101=ORIENTED_EDGE('',*,*,#221,.F.);
#102=ORIENTED_EDGE('',*,*,#222,.T.);
#103=ORIENTED_EDGE('',*,*,#222,.F.);
#104=ORIENTED_EDGE('',*,*,#224,.F.);
#105=ORIENTED_EDGE('',*,*,#223,.T.);
#106=ORIENTED_EDGE('',*,*,#211,.F.);
#107=ORIENTED_EDGE('',*,*,#210,.F.);
#108=ORIENTED_EDGE('',*,*,#209,.F.);
#109=ORIENTED_EDGE('',*,*,#224,.T.);
#110=ORIENTED_EDGE('',*,*,#221,.T.);
#111=ORIENTED_EDGE('',*,*,#208,.F.);
#112=ORIENTED_EDGE('',*,*,#227,.F.);
#113=ORIENTED_EDGE('',*,*,#225,.F.);
#114=ORIENTED_EDGE('',*,*,#226,.T.);
#115=ORIENTED_EDGE('',*,*,#226,.F.);
#116=ORIENTED_EDGE('',*,*,#228,.F.);
#117=ORIENTED_EDGE('',*,*,#227,.T.);
#118=ORIENTED_EDGE('',*,*,#207,.F.);
#119=ORIENTED_EDGE('',*,*,#206,.F.);
#120=ORIENTED_EDGE('',*,*,#205,.F.);
#121=ORIENTED_EDGE('',*,*,#228,.T.);
#122=ORIENTED_EDGE('',*,*,#225,.T.);
#123=CYLINDRICAL_SURFACE('',#306,36.5125);
#124=CYLINDRICAL_SURFACE('',#308,36.5125);
#125=CYLINDRICAL_SURFACE('',#310,34.4043);
#126=CYLINDRICAL_SURFACE('',#311,34.4043);
#127=CYLINDRICAL_SURFACE('',#312,34.85);
#128=CYLINDRICAL_SURFACE('',#313,34.85);
#129=CYLINDRICAL_SURFACE('',#315,34.85);
#130=CYLINDRICAL_SURFACE('',#316,34.85);
#131=STYLED_ITEM('',(#132),#17);
#132=PRESENTATION_STYLE_ASSIGNMENT((#141));
#133=PRESENTATION_STYLE_ASSIGNMENT((#142));
#134=PRESENTATION_STYLE_ASSIGNMENT((#143));
#135=PRESENTATION_STYLE_ASSIGNMENT((#144));
#136=PRESENTATION_STYLE_ASSIGNMENT((#145));
#137=PRESENTATION_STYLE_ASSIGNMENT((#146));
#138=PRESENTATION_STYLE_ASSIGNMENT((#147));
#139=PRESENTATION_STYLE_ASSIGNMENT((#148));
#140=PRESENTATION_STYLE_ASSIGNMENT((#149));
#141=SURFACE_STYLE_USAGE(.BOTH.,#150);
#142=SURFACE_STYLE_USAGE(.BOTH.,#151);
#143=SURFACE_STYLE_USAGE(.BOTH.,#152);
#144=SURFACE_STYLE_USAGE(.BOTH.,#153);
#145=SURFACE_STYLE_USAGE(.BOTH.,#154);
#146=SURFACE_STYLE_USAGE(.BOTH.,#155);
#147=SURFACE_STYLE_USAGE(.BOTH.,#156);
#148=SURFACE_STYLE_USAGE(.BOTH.,#157);
#149=SURFACE_STYLE_USAGE(.BOTH.,#158);
#150=SURFACE_SIDE_STYLE('',(#159));
#151=SURFACE_SIDE_STYLE('',(#160));
#152=SURFACE_SIDE_STYLE('',(#161));
#153=SURFACE_SIDE_STYLE('',(#162));
#154=SURFACE_SIDE_STYLE('',(#163));
#155=SURFACE_SIDE_STYLE('',(#164));
#156=SURFACE_SIDE_STYLE('',(#165));
#157=SURFACE_SIDE_STYLE('',(#166));
#158=SURFACE_SIDE_STYLE('',(#167));
#159=SURFACE_STYLE_FILL_AREA(#168);
#160=SURFACE_STYLE_FILL_AREA(#169);
#161=SURFACE_STYLE_FILL_AREA(#170);
#162=SURFACE_STYLE_FILL_AREA(#171);
#163=SURFACE_STYLE_FILL_AREA(#172);
#164=SURFACE_STYLE_FILL_AREA(#173);
#165=SURFACE_STYLE_FILL_AREA(#174);
#166=SURFACE_STYLE_FILL_AREA(#175);
#167=SURFACE_STYLE_FILL_AREA(#176);
#168=FILL_AREA_STYLE('',(#177));
#169=FILL_AREA_STYLE('',(#178));
#170=FILL_AREA_STYLE('',(#179));
#171=FILL_AREA_STYLE('',(#180));
#172=FILL_AREA_STYLE('',(#181));
#173=FILL_AREA_STYLE('',(#182));
#174=FILL_AREA_STYLE('',(#183));
#175=FILL_AREA_STYLE('',(#184));
#176=FILL_AREA_STYLE('',(#185));
#177=FILL_AREA_STYLE_COLOUR('',#186);
#178=FILL_AREA_STYLE_COLOUR('',#187);
#179=FILL_AREA_STYLE_COLOUR('',#187);
#180=FILL_AREA_STYLE_COLOUR('',#187);
#181=FILL_AREA_STYLE_COLOUR('',#187);
#182=FILL_AREA_STYLE_COLOUR('',#187);
#183=FILL_AREA_STYLE_COLOUR('',#188);
#184=FILL_AREA_STYLE_COLOUR('',#188);
#185=FILL_AREA_STYLE_COLOUR('',#188);
#186=COLOUR_RGB('Colour',0.329411764705882,0.705882352941177,1.);
#187=COLOUR_RGB('Colour',0.862745098039216,0.737254901960784,0.282352941176471);
#188=COLOUR_RGB('Colour',0.862745098039216,0.654901960784314,0.282352941176471);
#189=LINE('',#420,#197);
#190=LINE('',#421,#198);
#191=LINE('',#424,#199);
#192=LINE('',#425,#200);
#193=LINE('',#427,#201);
#194=LINE('',#428,#202);
#195=LINE('',#431,#203);
#196=LINE('',#432,#204);
#197=VECTOR('',#344,100.);
#198=VECTOR('',#345,100.);
#199=VECTOR('',#350,50.);
#200=VECTOR('',#351,50.);
#201=VECTOR('',#354,25.);
#202=VECTOR('',#355,25.);
#203=VECTOR('',#360,25.);
#204=VECTOR('',#361,25.);
#205=EDGE_CURVE('',#260,#259,#229,.T.);
#206=EDGE_CURVE('',#259,#260,#230,.T.);
#207=EDGE_CURVE('',#258,#257,#231,.T.);
#208=EDGE_CURVE('',#257,#258,#232,.T.);
#209=EDGE_CURVE('',#256,#255,#233,.T.);
#210=EDGE_CURVE('',#255,#256,#234,.T.);
#211=EDGE_CURVE('',#254,#253,#235,.T.);
#212=EDGE_CURVE('',#253,#254,#236,.T.);
#213=EDGE_CURVE('',#252,#251,#237,.T.);
#214=EDGE_CURVE('',#250,#249,#238,.T.);
#215=EDGE_CURVE('',#250,#251,#189,.T.);
#216=EDGE_CURVE('',#249,#252,#190,.T.);
#217=EDGE_CURVE('',#251,#252,#239,.T.);
#218=EDGE_CURVE('',#249,#250,#240,.T.);
#219=EDGE_CURVE('',#256,#259,#191,.T.);
#220=EDGE_CURVE('',#255,#260,#192,.T.);
#221=EDGE_CURVE('',#248,#247,#241,.T.);
#222=EDGE_CURVE('',#248,#254,#193,.T.);
#223=EDGE_CURVE('',#247,#253,#194,.T.);
#224=EDGE_CURVE('',#247,#248,#242,.T.);
#225=EDGE_CURVE('',#246,#245,#243,.T.);
#226=EDGE_CURVE('',#246,#258,#195,.T.);
#227=EDGE_CURVE('',#245,#257,#196,.T.);
#228=EDGE_CURVE('',#245,#246,#244,.T.);
#229=CIRCLE('',#290,34.4043);
#230=CIRCLE('',#291,34.4043);
#231=CIRCLE('',#292,34.85);
#232=CIRCLE('',#293,34.85);
#233=CIRCLE('',#294,34.4043);
#234=CIRCLE('',#295,34.4043);
#235=CIRCLE('',#296,34.85);
#236=CIRCLE('',#297,34.85);
#237=CIRCLE('',#298,36.5125);
#238=CIRCLE('',#299,36.5125);
#239=CIRCLE('',#300,36.5125);
#240=CIRCLE('',#301,36.5125);
#241=CIRCLE('',#302,34.85);
#242=CIRCLE('',#303,34.85);
#243=CIRCLE('',#304,34.85);
#244=CIRCLE('',#305,34.85);
#245=VERTEX_POINT('',#394);
#246=VERTEX_POINT('',#395);
#247=VERTEX_POINT('',#396);
#248=VERTEX_POINT('',#397);
#249=VERTEX_POINT('',#398);
#250=VERTEX_POINT('',#399);
#251=VERTEX_POINT('',#400);
#252=VERTEX_POINT('',#401);
#253=VERTEX_POINT('',#402);
#254=VERTEX_POINT('',#403);
#255=VERTEX_POINT('',#404);
#256=VERTEX_POINT('',#405);
#257=VERTEX_POINT('',#406);
#258=VERTEX_POINT('',#407);
#259=VERTEX_POINT('',#408);
#260=VERTEX_POINT('',#409);
#261=PRODUCT_CATEGORY_RELATIONSHIP('','',#265,#263);
#262=PRODUCT_CATEGORY_RELATIONSHIP('','',#266,#264);
#263=PRODUCT_RELATED_PRODUCT_CATEGORY('detail','',(#278));
#264=PRODUCT_RELATED_PRODUCT_CATEGORY('detail','',(#279));
#265=PRODUCT_CATEGORY('part','');
#266=PRODUCT_CATEGORY('part','');
#267=SHAPE_DEFINITION_REPRESENTATION(#269,#286);
#268=SHAPE_DEFINITION_REPRESENTATION(#270,#287);
#269=PRODUCT_DEFINITION_SHAPE('','Shape',#272);
#270=PRODUCT_DEFINITION_SHAPE('','Shape',#273);
#271=PRODUCT_DEFINITION_SHAPE('','',#12);
#272=PRODUCT_DEFINITION('','',#274,#276);
#273=PRODUCT_DEFINITION('','',#275,#277);
#274=PRODUCT_DEFINITION_FORMATION('','',#278);
#275=PRODUCT_DEFINITION_FORMATION('','',#279);
#276=PRODUCT_DEFINITION_CONTEXT('part definition',#284,'');
#277=PRODUCT_DEFINITION_CONTEXT('part definition',#285,'');
#278=PRODUCT('0353-10-24','0353-10-24','not specified',(#280));
#279=PRODUCT('0353-10-24','0353-10-24','not specified',(#281));
#280=PRODUCT_CONTEXT('',#284,'mechanical');
#281=PRODUCT_CONTEXT('',#285,'mechanical');
#282=APPLICATION_PROTOCOL_DEFINITION('Draft International Standard',
'automotive_design',1997,#284);
#283=APPLICATION_PROTOCOL_DEFINITION('Draft International Standard',
'automotive_design',1997,#285);
#284=APPLICATION_CONTEXT('automotive design');
#285=APPLICATION_CONTEXT('automotive design');
#286=SHAPE_REPRESENTATION('0353-10-24',(#288,#319),#448);
#287=SHAPE_REPRESENTATION('0353-10-24',(#289),#449);
#288=AXIS2_PLACEMENT_3D('',#392,#320,#321);
#289=AXIS2_PLACEMENT_3D('',#393,#322,#323);
#290=AXIS2_PLACEMENT_3D('',#410,#324,#325);
#291=AXIS2_PLACEMENT_3D('',#411,#326,#327);
#292=AXIS2_PLACEMENT_3D('',#412,#328,#329);
#293=AXIS2_PLACEMENT_3D('',#413,#330,#331);
#294=AXIS2_PLACEMENT_3D('',#414,#332,#333);
#295=AXIS2_PLACEMENT_3D('',#415,#334,#335);
#296=AXIS2_PLACEMENT_3D('',#416,#336,#337);
#297=AXIS2_PLACEMENT_3D('',#417,#338,#339);
#298=AXIS2_PLACEMENT_3D('',#418,#340,#341);
#299=AXIS2_PLACEMENT_3D('',#419,#342,#343);
#300=AXIS2_PLACEMENT_3D('',#422,#346,#347);
#301=AXIS2_PLACEMENT_3D('',#423,#348,#349);
#302=AXIS2_PLACEMENT_3D('',#426,#352,#353);
#303=AXIS2_PLACEMENT_3D('',#429,#356,#357);
#304=AXIS2_PLACEMENT_3D('',#430,#358,#359);
#305=AXIS2_PLACEMENT_3D('',#433,#362,#363);
#306=AXIS2_PLACEMENT_3D('',#434,#364,#365);
#307=AXIS2_PLACEMENT_3D('',#435,#366,#367);
#308=AXIS2_PLACEMENT_3D('',#436,#368,#369);
#309=AXIS2_PLACEMENT_3D('',#437,#370,#371);
#310=AXIS2_PLACEMENT_3D('',#438,#372,#373);
#311=AXIS2_PLACEMENT_3D('',#439,#374,#375);
#312=AXIS2_PLACEMENT_3D('',#440,#376,#377);
#313=AXIS2_PLACEMENT_3D('',#441,#378,#379);
#314=AXIS2_PLACEMENT_3D('',#442,#380,#381);
#315=AXIS2_PLACEMENT_3D('',#443,#382,#383);
#316=AXIS2_PLACEMENT_3D('',#444,#384,#385);
#317=AXIS2_PLACEMENT_3D('',#445,#386,#387);
#318=AXIS2_PLACEMENT_3D('',#446,#388,#389);
#319=AXIS2_PLACEMENT_3D('',#447,#390,#391);
#320=DIRECTION('',(0.,0.,1.));
#321=DIRECTION('',(1.,0.,0.));
#322=DIRECTION('',(0.,0.,1.));
#323=DIRECTION('',(1.,0.,0.));
#324=DIRECTION('',(0.,0.,1.));
#325=DIRECTION('',(0.,1.,0.));
#326=DIRECTION('',(0.,0.,1.));
#327=DIRECTION('',(0.,-1.,0.));
#328=DIRECTION('',(0.,0.,-1.));
#329=DIRECTION('',(0.,-1.,0.));
#330=DIRECTION('',(0.,0.,-1.));
#331=DIRECTION('',(0.,1.,0.));
#332=DIRECTION('',(0.,0.,-1.));
#333=DIRECTION('',(0.,-1.,0.));
#334=DIRECTION('',(0.,0.,-1.));
#335=DIRECTION('',(0.,1.,0.));
#336=DIRECTION('',(0.,0.,1.));
#337=DIRECTION('',(0.,-1.,0.));
#338=DIRECTION('',(0.,0.,1.));
#339=DIRECTION('',(0.,1.,0.));
#340=DIRECTION('',(0.,0.,-1.));
#341=DIRECTION('',(0.,1.,0.));
#342=DIRECTION('',(0.,0.,1.));
#343=DIRECTION('',(0.,-1.,0.));
#344=DIRECTION('',(0.,0.,-1.));
#345=DIRECTION('',(0.,0.,-1.));
#346=DIRECTION('',(0.,0.,-1.));
#347=DIRECTION('',(0.,-1.,0.));
#348=DIRECTION('',(0.,0.,1.));
#349=DIRECTION('',(0.,1.,0.));
#350=DIRECTION('',(0.,0.,-1.));
#351=DIRECTION('',(0.,0.,-1.));
#352=DIRECTION('',(0.,0.,-1.));
#353=DIRECTION('',(0.,-1.,0.));
#354=DIRECTION('',(0.,0.,1.));
#355=DIRECTION('',(0.,0.,1.));
#356=DIRECTION('',(0.,0.,-1.));
#357=DIRECTION('',(0.,1.,0.));
#358=DIRECTION('',(0.,0.,1.));
#359=DIRECTION('',(0.,-1.,0.));
#360=DIRECTION('',(0.,0.,-1.));
#361=DIRECTION('',(0.,0.,-1.));
#362=DIRECTION('',(0.,0.,1.));
#363=DIRECTION('',(0.,1.,0.));
#364=DIRECTION('',(0.,0.,1.));
#365=DIRECTION('',(0.,-1.,0.));
#366=DIRECTION('',(0.,0.,-1.));
#367=DIRECTION('',(-1.,0.,0.));
#368=DIRECTION('',(0.,0.,1.));
#369=DIRECTION('',(0.,1.,0.));
#370=DIRECTION('',(0.,0.,1.));
#371=DIRECTION('',(1.,0.,0.));
#372=DIRECTION('',(0.,0.,1.));
#373=DIRECTION('',(0.,-1.,0.));
#374=DIRECTION('',(0.,0.,1.));
#375=DIRECTION('',(0.,1.,0.));
#376=DIRECTION('',(0.,0.,-1.));
#377=DIRECTION('',(0.,-1.,0.));
#378=DIRECTION('',(0.,0.,-1.));
#379=DIRECTION('',(0.,1.,0.));
#380=DIRECTION('',(0.,0.,1.));
#381=DIRECTION('',(-1.,0.,0.));
#382=DIRECTION('',(0.,0.,1.));
#383=DIRECTION('',(0.,-1.,0.));
#384=DIRECTION('',(0.,0.,1.));
#385=DIRECTION('',(0.,1.,0.));
#386=DIRECTION('',(0.,0.,-1.));
#387=DIRECTION('',(1.,0.,0.));
#388=DIRECTION('',(0.,0.,1.));
#389=DIRECTION('',(1.,0.,0.));
#390=DIRECTION('',(0.,0.,1.));
#391=DIRECTION('',(1.,0.,0.));
#392=CARTESIAN_POINT('',(0.,0.,0.));
#393=CARTESIAN_POINT('',(0.,0.,0.));
#394=CARTESIAN_POINT('',(284.374998769122,454.102253314261,548.584006555646));
#395=CARTESIAN_POINT('',(284.374998769122,384.402253314261,548.584006555646));
#396=CARTESIAN_POINT('',(284.374998769122,454.102253314261,598.584006555646));
#397=CARTESIAN_POINT('',(284.374998769122,384.402253314261,598.584006555646));
#398=CARTESIAN_POINT('',(284.374998769122,455.764753314261,623.584006555646));
#399=CARTESIAN_POINT('',(284.374998769122,382.739753314261,623.584006555646));
#400=CARTESIAN_POINT('',(284.374998769122,382.739753314261,523.584006555646));
#401=CARTESIAN_POINT('',(284.374998769122,455.764753314261,523.584006555646));
#402=CARTESIAN_POINT('',(284.374998769122,454.102253314261,623.584006555646));
#403=CARTESIAN_POINT('',(284.374998769122,384.402253314261,623.584006555646));
#404=CARTESIAN_POINT('',(284.374998769122,453.656553314261,598.584006555646));
#405=CARTESIAN_POINT('',(284.374998769122,384.847953314261,598.584006555646));
#406=CARTESIAN_POINT('',(284.374998769122,454.102253314261,523.584006555646));
#407=CARTESIAN_POINT('',(284.374998769122,384.402253314261,523.584006555646));
#408=CARTESIAN_POINT('',(284.374998769122,384.847953314261,548.584006555646));
#409=CARTESIAN_POINT('',(284.374998769122,453.656553314261,548.584006555646));
#410=CARTESIAN_POINT('',(284.374998769122,419.252253314261,548.584006555646));
#411=CARTESIAN_POINT('',(284.374998769122,419.252253314261,548.584006555646));
#412=CARTESIAN_POINT('',(284.374998769122,419.252253314261,523.584006555646));
#413=CARTESIAN_POINT('',(284.374998769122,419.252253314261,523.584006555646));
#414=CARTESIAN_POINT('',(284.374998769122,419.252253314261,598.584006555646));
#415=CARTESIAN_POINT('',(284.374998769122,419.252253314261,598.584006555646));
#416=CARTESIAN_POINT('',(284.374998769122,419.252253314261,623.584006555646));
#417=CARTESIAN_POINT('',(284.374998769122,419.252253314261,623.584006555646));
#418=CARTESIAN_POINT('',(284.374998769122,419.252253314261,523.584006555646));
#419=CARTESIAN_POINT('',(284.374998769122,419.252253314261,623.584006555646));
#420=CARTESIAN_POINT('',(284.374998769122,382.739753314261,623.584006555646));
#421=CARTESIAN_POINT('',(284.374998769122,455.764753314261,623.584006555646));
#422=CARTESIAN_POINT('',(284.374998769122,419.252253314261,523.584006555646));
#423=CARTESIAN_POINT('',(284.374998769122,419.252253314261,623.584006555646));
#424=CARTESIAN_POINT('',(284.374998769122,384.847953314261,598.584006555646));
#425=CARTESIAN_POINT('',(284.374998769122,453.656553314261,598.584006555646));
#426=CARTESIAN_POINT('',(284.374998769122,419.252253314261,598.584006555646));
#427=CARTESIAN_POINT('',(284.374998769122,384.402253314261,598.584006555646));
#428=CARTESIAN_POINT('',(284.374998769122,454.102253314261,598.584006555646));
#429=CARTESIAN_POINT('',(284.374998769122,419.252253314261,598.584006555646));
#430=CARTESIAN_POINT('',(284.374998769122,419.252253314261,548.584006555646));
#431=CARTESIAN_POINT('',(284.374998769122,384.402253314261,548.584006555646));
#432=CARTESIAN_POINT('',(284.374998769122,454.102253314261,548.584006555646));
#433=CARTESIAN_POINT('',(284.374998769122,419.252253314261,548.584006555646));
#434=CARTESIAN_POINT('',(284.374998769122,419.252253314261,623.584006555646));
#435=CARTESIAN_POINT('',(321.617748769122,382.009503314261,523.584006555646));
#436=CARTESIAN_POINT('',(284.374998769122,419.252253314261,623.584006555646));
#437=CARTESIAN_POINT('',(247.132248769122,382.009503314261,623.584006555646));
#438=CARTESIAN_POINT('',(284.374998769122,419.252253314261,973.584006555646));
#439=CARTESIAN_POINT('',(284.374998769122,419.252253314261,973.584006555646));
#440=CARTESIAN_POINT('',(284.374998769122,419.252253314261,598.584006555646));
#441=CARTESIAN_POINT('',(284.374998769122,419.252253314261,598.584006555646));
#442=CARTESIAN_POINT('',(319.921998769122,383.705253314261,598.584006555646));
#443=CARTESIAN_POINT('',(284.374998769122,419.252253314261,548.584006555646));
#444=CARTESIAN_POINT('',(284.374998769122,419.252253314261,548.584006555646));
#445=CARTESIAN_POINT('',(248.827998769122,383.705253314261,548.584006555646));
#446=CARTESIAN_POINT('',(0.,0.,0.));
#447=CARTESIAN_POINT('',(0.,0.,0.));
#448=(
GEOMETRIC_REPRESENTATION_CONTEXT(3)
GLOBAL_UNCERTAINTY_ASSIGNED_CONTEXT((#451))
GLOBAL_UNIT_ASSIGNED_CONTEXT((#460,#457,#454))
REPRESENTATION_CONTEXT('','')
);
#449=(
GEOMETRIC_REPRESENTATION_CONTEXT(3)
GLOBAL_UNCERTAINTY_ASSIGNED_CONTEXT((#452))
GLOBAL_UNIT_ASSIGNED_CONTEXT((#461,#458,#455))
REPRESENTATION_CONTEXT('','')
);
#450=(
GEOMETRIC_REPRESENTATION_CONTEXT(3)
GLOBAL_UNCERTAINTY_ASSIGNED_CONTEXT((#453))
GLOBAL_UNIT_ASSIGNED_CONTEXT((#462,#459,#456))
REPRESENTATION_CONTEXT('','')
);
#451=UNCERTAINTY_MEASURE_WITH_UNIT(LENGTH_MEASURE(0.001),#460,'TOL_CRV',
'CONFUSED CURVE UNCERTAINTY');
#452=UNCERTAINTY_MEASURE_WITH_UNIT(LENGTH_MEASURE(0.001),#461,'TOL_CRV',
'CONFUSED CURVE UNCERTAINTY');
#453=UNCERTAINTY_MEASURE_WITH_UNIT(LENGTH_MEASURE(0.001),#462,'TOL_CRV',
'CONFUSED CURVE UNCERTAINTY');
#454=(
NAMED_UNIT(*)
SI_UNIT($,.STERADIAN.)
SOLID_ANGLE_UNIT()
);
#455=(
NAMED_UNIT(*)
SI_UNIT($,.STERADIAN.)
SOLID_ANGLE_UNIT()
);
#456=(
NAMED_UNIT(*)
SI_UNIT($,.STERADIAN.)
SOLID_ANGLE_UNIT()
);
#457=(
NAMED_UNIT(*)
PLANE_ANGLE_UNIT()
SI_UNIT($,.RADIAN.)
);
#458=(
NAMED_UNIT(*)
PLANE_ANGLE_UNIT()
SI_UNIT($,.RADIAN.)
);
#459=(
NAMED_UNIT(*)
PLANE_ANGLE_UNIT()
SI_UNIT($,.RADIAN.)
);
#460=(
LENGTH_UNIT()
NAMED_UNIT(*)
SI_UNIT(.MILLI.,.METRE.)
);
#461=(
LENGTH_UNIT()
NAMED_UNIT(*)
SI_UNIT(.MILLI.,.METRE.)
);
#462=(
LENGTH_UNIT()
NAMED_UNIT(*)
SI_UNIT(.MILLI.,.METRE.)
);
ENDSEC;
END-ISO-10303-21;
