ISO-10303-21;
HEADER;
/* Generated by software containing ST-Developer
 * from STEP Tools, Inc. (www.steptools.com) 
 */
/* OPTION: using custom schema-name function */

FILE_DESCRIPTION(
/* description */ ('VariCAD 2015-3.01 AP-214'),
/* implementation_level */ '2;1');

FILE_NAME(
/* name */ '0393-63-02.stp',
/* time_stamp */ '2015-12-16T17:16:37-07:00',
/* author */ (''),
/* organization */ (''),
/* preprocessor_version */ 'ST-DEVELOPER v14',
/* originating_system */ 'VariCAD 2015-3.01; kernel version (20130303)',

/* authorisation */ '');

FILE_SCHEMA (('AUTOMOTIVE_DESIGN'));
ENDSEC;

DATA;
#10=MECHANICAL_DESIGN_GEOMETRIC_PRESENTATION_REPRESENTATION('',(#87),#284);
#11=CONTEXT_DEPENDENT_SHAPE_REPRESENTATION(#13,#151);
#12=NEXT_ASSEMBLY_USAGE_OCCURRENCE('','','',#152,#153,'');
#13=(
REPRESENTATION_RELATIONSHIP('','',#166,#167)
REPRESENTATION_RELATIONSHIP_WITH_TRANSFORMATION(#14)
SHAPE_REPRESENTATION_RELATIONSHIP()
);
#14=ITEM_DEFINED_TRANSFORMATION('','',#191,#169);
#15=SHAPE_REPRESENTATION_RELATIONSHIP('','',#167,#16);
#16=ADVANCED_BREP_SHAPE_REPRESENTATION('',(#17,#190),#283);
#17=MANIFOLD_SOLID_BREP('',#18);
#18=CLOSED_SHELL('',(#25,#26,#27,#28,#29,#30,#31,#32));
#19=TOROIDAL_SURFACE('',#188,1.3,0.2);
#20=TOROIDAL_SURFACE('',#189,1.3,0.2);
#21=FACE_BOUND('',#43,.F.);
#22=FACE_BOUND('',#46,.F.);
#23=PLANE('',#184);
#24=PLANE('',#186);
#25=ADVANCED_FACE('',(#33),#83,.F.);
#26=ADVANCED_FACE('',(#34),#84,.T.);
#27=ADVANCED_FACE('',(#21,#35),#23,.T.);
#28=ADVANCED_FACE('',(#36),#85,.F.);
#29=ADVANCED_FACE('',(#22,#37),#24,.T.);
#30=ADVANCED_FACE('',(#38),#86,.T.);
#31=ADVANCED_FACE('',(#39),#19,.T.);
#32=ADVANCED_FACE('',(#40),#20,.T.);
#33=FACE_OUTER_BOUND('',#41,.F.);
#34=FACE_OUTER_BOUND('',#42,.F.);
#35=FACE_OUTER_BOUND('',#44,.F.);
#36=FACE_OUTER_BOUND('',#45,.F.);
#37=FACE_OUTER_BOUND('',#47,.F.);
#38=FACE_OUTER_BOUND('',#48,.F.);
#39=FACE_OUTER_BOUND('',#49,.F.);
#40=FACE_OUTER_BOUND('',#50,.F.);
#41=EDGE_LOOP('',(#51,#52,#53,#54));
#42=EDGE_LOOP('',(#55,#56,#57,#58));
#43=EDGE_LOOP('',(#59,#60));
#44=EDGE_LOOP('',(#61,#62));
#45=EDGE_LOOP('',(#63,#64,#65,#66));
#46=EDGE_LOOP('',(#67,#68));
#47=EDGE_LOOP('',(#69,#70));
#48=EDGE_LOOP('',(#71,#72,#73,#74));
#49=EDGE_LOOP('',(#75,#76,#77,#78));
#50=EDGE_LOOP('',(#79,#80,#81,#82));
#51=ORIENTED_EDGE('',*,*,#107,.F.);
#52=ORIENTED_EDGE('',*,*,#111,.F.);
#53=ORIENTED_EDGE('',*,*,#108,.F.);
#54=ORIENTED_EDGE('',*,*,#110,.T.);
#55=ORIENTED_EDGE('',*,*,#113,.F.);
#56=ORIENTED_EDGE('',*,*,#109,.T.);
#57=ORIENTED_EDGE('',*,*,#112,.T.);
#58=ORIENTED_EDGE('',*,*,#103,.T.);
#59=ORIENTED_EDGE('',*,*,#114,.T.);
#60=ORIENTED_EDGE('',*,*,#107,.T.);
#61=ORIENTED_EDGE('',*,*,#116,.F.);
#62=ORIENTED_EDGE('',*,*,#109,.F.);
#63=ORIENTED_EDGE('',*,*,#110,.F.);
#64=ORIENTED_EDGE('',*,*,#115,.F.);
#65=ORIENTED_EDGE('',*,*,#111,.T.);
#66=ORIENTED_EDGE('',*,*,#114,.F.);
#67=ORIENTED_EDGE('',*,*,#115,.T.);
#68=ORIENTED_EDGE('',*,*,#108,.T.);
#69=ORIENTED_EDGE('',*,*,#105,.F.);
#70=ORIENTED_EDGE('',*,*,#104,.F.);
#71=ORIENTED_EDGE('',*,*,#112,.F.);
#72=ORIENTED_EDGE('',*,*,#116,.T.);
#73=ORIENTED_EDGE('',*,*,#113,.T.);
#74=ORIENTED_EDGE('',*,*,#106,.T.);
#75=ORIENTED_EDGE('',*,*,#118,.F.);
#76=ORIENTED_EDGE('',*,*,#106,.F.);
#77=ORIENTED_EDGE('',*,*,#117,.T.);
#78=ORIENTED_EDGE('',*,*,#105,.T.);
#79=ORIENTED_EDGE('',*,*,#117,.F.);
#80=ORIENTED_EDGE('',*,*,#103,.F.);
#81=ORIENTED_EDGE('',*,*,#118,.T.);
#82=ORIENTED_EDGE('',*,*,#104,.T.);
#83=CYLINDRICAL_SURFACE('',#182,1.2065);
#84=CYLINDRICAL_SURFACE('',#183,1.5);
#85=CYLINDRICAL_SURFACE('',#185,1.2065);
#86=CYLINDRICAL_SURFACE('',#187,1.5);
#87=STYLED_ITEM('',(#88),#17);
#88=PRESENTATION_STYLE_ASSIGNMENT((#89));
#89=SURFACE_STYLE_USAGE(.BOTH.,#90);
#90=SURFACE_SIDE_STYLE('',(#91));
#91=SURFACE_STYLE_FILL_AREA(#92);
#92=FILL_AREA_STYLE('',(#93));
#93=FILL_AREA_STYLE_COLOUR('',#94);
#94=COLOUR_RGB('Colour',0.717647058823529,0.666666666666667,0.862745098039216);
#95=LINE('',#263,#99);
#96=LINE('',#264,#100);
#97=LINE('',#265,#101);
#98=LINE('',#266,#102);
#99=VECTOR('',#210,3.2);
#100=VECTOR('',#211,3.2);
#101=VECTOR('',#212,3.);
#102=VECTOR('',#213,3.);
#103=EDGE_CURVE('',#140,#139,#119,.T.);
#104=EDGE_CURVE('',#138,#137,#120,.T.);
#105=EDGE_CURVE('',#137,#138,#121,.T.);
#106=EDGE_CURVE('',#139,#140,#122,.T.);
#107=EDGE_CURVE('',#136,#135,#123,.T.);
#108=EDGE_CURVE('',#134,#133,#124,.T.);
#109=EDGE_CURVE('',#132,#131,#125,.T.);
#110=EDGE_CURVE('',#134,#135,#95,.T.);
#111=EDGE_CURVE('',#133,#136,#96,.T.);
#112=EDGE_CURVE('',#131,#140,#97,.T.);
#113=EDGE_CURVE('',#132,#139,#98,.T.);
#114=EDGE_CURVE('',#135,#136,#126,.T.);
#115=EDGE_CURVE('',#133,#134,#127,.T.);
#116=EDGE_CURVE('',#131,#132,#128,.T.);
#117=EDGE_CURVE('',#139,#137,#129,.T.);
#118=EDGE_CURVE('',#140,#138,#130,.T.);
#119=CIRCLE('',#170,1.5);
#120=CIRCLE('',#171,1.3);
#121=CIRCLE('',#172,1.3);
#122=CIRCLE('',#173,1.5);
#123=CIRCLE('',#174,1.2065);
#124=CIRCLE('',#175,1.2065);
#125=CIRCLE('',#176,1.5);
#126=CIRCLE('',#177,1.2065);
#127=CIRCLE('',#178,1.2065);
#128=CIRCLE('',#179,1.5);
#129=CIRCLE('',#180,0.2);
#130=CIRCLE('',#181,0.2);
#131=VERTEX_POINT('',#246);
#132=VERTEX_POINT('',#247);
#133=VERTEX_POINT('',#248);
#134=VERTEX_POINT('',#249);
#135=VERTEX_POINT('',#250);
#136=VERTEX_POINT('',#251);
#137=VERTEX_POINT('',#252);
#138=VERTEX_POINT('',#253);
#139=VERTEX_POINT('',#254);
#140=VERTEX_POINT('',#255);
#141=PRODUCT_CATEGORY_RELATIONSHIP('','',#145,#143);
#142=PRODUCT_CATEGORY_RELATIONSHIP('','',#146,#144);
#143=PRODUCT_RELATED_PRODUCT_CATEGORY('detail','',(#158));
#144=PRODUCT_RELATED_PRODUCT_CATEGORY('detail','',(#159));
#145=PRODUCT_CATEGORY('part','');
#146=PRODUCT_CATEGORY('part','');
#147=SHAPE_DEFINITION_REPRESENTATION(#149,#166);
#148=SHAPE_DEFINITION_REPRESENTATION(#150,#167);
#149=PRODUCT_DEFINITION_SHAPE('','Shape',#152);
#150=PRODUCT_DEFINITION_SHAPE('','Shape',#153);
#151=PRODUCT_DEFINITION_SHAPE('','',#12);
#152=PRODUCT_DEFINITION('','',#154,#156);
#153=PRODUCT_DEFINITION('','',#155,#157);
#154=PRODUCT_DEFINITION_FORMATION('','',#158);
#155=PRODUCT_DEFINITION_FORMATION('','',#159);
#156=PRODUCT_DEFINITION_CONTEXT('part definition',#164,'');
#157=PRODUCT_DEFINITION_CONTEXT('part definition',#165,'');
#158=PRODUCT('0393-63-02','0393-63-02','not specified',(#160));
#159=PRODUCT('','','not specified',(#161));
#160=PRODUCT_CONTEXT('',#164,'mechanical');
#161=PRODUCT_CONTEXT('',#165,'mechanical');
#162=APPLICATION_PROTOCOL_DEFINITION('Draft International Standard',
'automotive_design',1997,#164);
#163=APPLICATION_PROTOCOL_DEFINITION('Draft International Standard',
'automotive_design',1997,#165);
#164=APPLICATION_CONTEXT('automotive design');
#165=APPLICATION_CONTEXT('automotive design');
#166=SHAPE_REPRESENTATION('0393-63-02',(#168,#191),#282);
#167=SHAPE_REPRESENTATION('',(#169),#283);
#168=AXIS2_PLACEMENT_3D('',#244,#192,#193);
#169=AXIS2_PLACEMENT_3D('',#245,#194,#195);
#170=AXIS2_PLACEMENT_3D('',#256,#196,#197);
#171=AXIS2_PLACEMENT_3D('',#257,#198,#199);
#172=AXIS2_PLACEMENT_3D('',#258,#200,#201);
#173=AXIS2_PLACEMENT_3D('',#259,#202,#203);
#174=AXIS2_PLACEMENT_3D('',#260,#204,#205);
#175=AXIS2_PLACEMENT_3D('',#261,#206,#207);
#176=AXIS2_PLACEMENT_3D('',#262,#208,#209);
#177=AXIS2_PLACEMENT_3D('',#267,#214,#215);
#178=AXIS2_PLACEMENT_3D('',#268,#216,#217);
#179=AXIS2_PLACEMENT_3D('',#269,#218,#219);
#180=AXIS2_PLACEMENT_3D('',#270,#220,#221);
#181=AXIS2_PLACEMENT_3D('',#271,#222,#223);
#182=AXIS2_PLACEMENT_3D('',#272,#224,#225);
#183=AXIS2_PLACEMENT_3D('',#273,#226,#227);
#184=AXIS2_PLACEMENT_3D('',#274,#228,#229);
#185=AXIS2_PLACEMENT_3D('',#275,#230,#231);
#186=AXIS2_PLACEMENT_3D('',#276,#232,#233);
#187=AXIS2_PLACEMENT_3D('',#277,#234,#235);
#188=AXIS2_PLACEMENT_3D('',#278,#236,#237);
#189=AXIS2_PLACEMENT_3D('',#279,#238,#239);
#190=AXIS2_PLACEMENT_3D('',#280,#240,#241);
#191=AXIS2_PLACEMENT_3D('',#281,#242,#243);
#192=DIRECTION('',(0.,0.,1.));
#193=DIRECTION('',(1.,0.,0.));
#194=DIRECTION('',(0.,0.,1.));
#195=DIRECTION('',(1.,0.,0.));
#196=DIRECTION('',(0.,1.,0.));
#197=DIRECTION('',(-1.,0.,0.));
#198=DIRECTION('',(0.,1.,0.));
#199=DIRECTION('',(-1.,0.,0.));
#200=DIRECTION('',(0.,1.,0.));
#201=DIRECTION('',(1.,0.,0.));
#202=DIRECTION('',(0.,1.,0.));
#203=DIRECTION('',(1.,0.,0.));
#204=DIRECTION('',(0.,-1.,0.));
#205=DIRECTION('',(1.,0.,0.));
#206=DIRECTION('',(0.,1.,0.));
#207=DIRECTION('',(-1.,0.,0.));
#208=DIRECTION('',(0.,-1.,0.));
#209=DIRECTION('',(1.,0.,0.));
#210=DIRECTION('',(0.,-1.,0.));
#211=DIRECTION('',(0.,-1.,0.));
#212=DIRECTION('',(0.,1.,0.));
#213=DIRECTION('',(0.,1.,0.));
#214=DIRECTION('',(0.,-1.,0.));
#215=DIRECTION('',(-1.,0.,0.));
#216=DIRECTION('',(0.,1.,0.));
#217=DIRECTION('',(1.,0.,0.));
#218=DIRECTION('',(0.,-1.,0.));
#219=DIRECTION('',(-1.,0.,0.));
#220=DIRECTION('',(0.,0.,1.));
#221=DIRECTION('',(1.,0.,0.));
#222=DIRECTION('',(0.,0.,-1.));
#223=DIRECTION('',(-1.,0.,0.));
#224=DIRECTION('',(0.,1.,0.));
#225=DIRECTION('',(-1.,0.,0.));
#226=DIRECTION('',(0.,1.,0.));
#227=DIRECTION('',(-1.,0.,0.));
#228=DIRECTION('',(0.,-1.,0.));
#229=DIRECTION('',(0.,0.,-1.));
#230=DIRECTION('',(0.,1.,0.));
#231=DIRECTION('',(1.,0.,0.));
#232=DIRECTION('',(0.,1.,0.));
#233=DIRECTION('',(0.,0.,1.));
#234=DIRECTION('',(0.,1.,0.));
#235=DIRECTION('',(1.,0.,0.));
#236=DIRECTION('',(0.,1.,0.));
#237=DIRECTION('',(1.,0.,0.));
#238=DIRECTION('',(0.,1.,0.));
#239=DIRECTION('',(-1.,0.,0.));
#240=DIRECTION('',(0.,0.,1.));
#241=DIRECTION('',(1.,0.,0.));
#242=DIRECTION('',(0.,0.,1.));
#243=DIRECTION('',(1.,0.,0.));
#244=CARTESIAN_POINT('',(0.,0.,0.));
#245=CARTESIAN_POINT('',(0.,0.,0.));
#246=CARTESIAN_POINT('',(-1.5,0.,0.));
#247=CARTESIAN_POINT('',(1.5,0.,0.));
#248=CARTESIAN_POINT('',(1.2065,3.2,0.));
#249=CARTESIAN_POINT('',(-1.2065,3.2,0.));
#250=CARTESIAN_POINT('',(-1.2065,0.,0.));
#251=CARTESIAN_POINT('',(1.2065,0.,0.));
#252=CARTESIAN_POINT('',(1.3,3.2,0.));
#253=CARTESIAN_POINT('',(-1.3,3.2,0.));
#254=CARTESIAN_POINT('',(1.5,3.,0.));
#255=CARTESIAN_POINT('',(-1.5,3.,0.));
#256=CARTESIAN_POINT('',(0.,3.,0.));
#257=CARTESIAN_POINT('',(0.,3.2,0.));
#258=CARTESIAN_POINT('',(0.,3.2,0.));
#259=CARTESIAN_POINT('',(0.,3.,0.));
#260=CARTESIAN_POINT('',(0.,0.,0.));
#261=CARTESIAN_POINT('',(0.,3.2,0.));
#262=CARTESIAN_POINT('',(0.,0.,0.));
#263=CARTESIAN_POINT('',(-1.2065,3.2,0.));
#264=CARTESIAN_POINT('',(1.2065,3.2,0.));
#265=CARTESIAN_POINT('',(-1.5,0.,0.));
#266=CARTESIAN_POINT('',(1.5,0.,0.));
#267=CARTESIAN_POINT('',(0.,0.,0.));
#268=CARTESIAN_POINT('',(0.,3.2,0.));
#269=CARTESIAN_POINT('',(0.,0.,0.));
#270=CARTESIAN_POINT('',(1.3,3.,0.));
#271=CARTESIAN_POINT('',(-1.3,3.,0.));
#272=CARTESIAN_POINT('',(0.,3.2,0.));
#273=CARTESIAN_POINT('',(0.,0.,0.));
#274=CARTESIAN_POINT('',(-1.53,0.,1.53));
#275=CARTESIAN_POINT('',(0.,3.2,0.));
#276=CARTESIAN_POINT('',(-1.5,3.2,-1.5));
#277=CARTESIAN_POINT('',(0.,0.,0.));
#278=CARTESIAN_POINT('',(0.,3.,0.));
#279=CARTESIAN_POINT('',(0.,3.,0.));
#280=CARTESIAN_POINT('',(0.,0.,0.));
#281=CARTESIAN_POINT('',(0.,0.,0.));
#282=(
GEOMETRIC_REPRESENTATION_CONTEXT(3)
GLOBAL_UNCERTAINTY_ASSIGNED_CONTEXT((#285))
GLOBAL_UNIT_ASSIGNED_CONTEXT((#294,#291,#288))
REPRESENTATION_CONTEXT('','')
);
#283=(
GEOMETRIC_REPRESENTATION_CONTEXT(3)
GLOBAL_UNCERTAINTY_ASSIGNED_CONTEXT((#286))
GLOBAL_UNIT_ASSIGNED_CONTEXT((#295,#292,#289))
REPRESENTATION_CONTEXT('','')
);
#284=(
GEOMETRIC_REPRESENTATION_CONTEXT(3)
GLOBAL_UNCERTAINTY_ASSIGNED_CONTEXT((#287))
GLOBAL_UNIT_ASSIGNED_CONTEXT((#296,#293,#290))
REPRESENTATION_CONTEXT('','')
);
#285=UNCERTAINTY_MEASURE_WITH_UNIT(LENGTH_MEASURE(0.001),#294,'TOL_CRV',
'CONFUSED CURVE UNCERTAINTY');
#286=UNCERTAINTY_MEASURE_WITH_UNIT(LENGTH_MEASURE(0.001),#295,'TOL_CRV',
'CONFUSED CURVE UNCERTAINTY');
#287=UNCERTAINTY_MEASURE_WITH_UNIT(LENGTH_MEASURE(0.001),#296,'TOL_CRV',
'CONFUSED CURVE UNCERTAINTY');
#288=(
NAMED_UNIT(*)
SI_UNIT($,.STERADIAN.)
SOLID_ANGLE_UNIT()
);
#289=(
NAMED_UNIT(*)
SI_UNIT($,.STERADIAN.)
SOLID_ANGLE_UNIT()
);
#290=(
NAMED_UNIT(*)
SI_UNIT($,.STERADIAN.)
SOLID_ANGLE_UNIT()
);
#291=(
NAMED_UNIT(*)
PLANE_ANGLE_UNIT()
SI_UNIT($,.RADIAN.)
);
#292=(
NAMED_UNIT(*)
PLANE_ANGLE_UNIT()
SI_UNIT($,.RADIAN.)
);
#293=(
NAMED_UNIT(*)
PLANE_ANGLE_UNIT()
SI_UNIT($,.RADIAN.)
);
#294=(
LENGTH_UNIT()
NAMED_UNIT(*)
SI_UNIT(.MILLI.,.METRE.)
);
#295=(
LENGTH_UNIT()
NAMED_UNIT(*)
SI_UNIT(.MILLI.,.METRE.)
);
#296=(
LENGTH_UNIT()
NAMED_UNIT(*)
SI_UNIT(.MILLI.,.METRE.)
);
ENDSEC;
END-ISO-10303-21;
