ISO-10303-21;
HEADER;
/* Generated by software containing ST-Developer
 * from STEP Tools, Inc. (www.steptools.com) 
 */
/* OPTION: using custom schema-name function */

FILE_DESCRIPTION(
/* description */ ('VariCAD 2015-3.01 AP-214'),
/* implementation_level */ '2;1');

FILE_NAME(
/* name */ '0393-63-03.stp',
/* time_stamp */ '2015-12-16T17:18:11-07:00',
/* author */ (''),
/* organization */ (''),
/* preprocessor_version */ 'ST-DEVELOPER v14',
/* originating_system */ 'VariCAD 2015-3.01; kernel version (20130303)',

/* authorisation */ '');

FILE_SCHEMA (('AUTOMOTIVE_DESIGN'));
ENDSEC;

DATA;
#10=MECHANICAL_DESIGN_GEOMETRIC_PRESENTATION_REPRESENTATION('',(#179),#580);
#11=CONTEXT_DEPENDENT_SHAPE_REPRESENTATION(#13,#309);
#12=NEXT_ASSEMBLY_USAGE_OCCURRENCE('','','',#310,#311,'');
#13=(
REPRESENTATION_RELATIONSHIP('','',#324,#325)
REPRESENTATION_RELATIONSHIP_WITH_TRANSFORMATION(#14)
SHAPE_REPRESENTATION_RELATIONSHIP()
);
#14=ITEM_DEFINED_TRANSFORMATION('','',#377,#327);
#15=SHAPE_REPRESENTATION_RELATIONSHIP('','',#325,#16);
#16=ADVANCED_BREP_SHAPE_REPRESENTATION('',(#17,#376),#579);
#17=MANIFOLD_SOLID_BREP('',#18);
#18=CLOSED_SHELL('',(#31,#32,#33,#34,#35,#36,#37,#38,#39,#40,#41,#42,#43,
#44,#45,#46,#47,#48,#49,#50));
#19=TOROIDAL_SURFACE('',#361,1.72500000000501,0.125);
#20=TOROIDAL_SURFACE('',#362,1.725,0.125);
#21=TOROIDAL_SURFACE('',#364,1.725,0.125);
#22=TOROIDAL_SURFACE('',#365,1.72500000000432,0.125);
#23=TOROIDAL_SURFACE('',#371,1.72500000000501,0.125);
#24=TOROIDAL_SURFACE('',#372,1.725,0.125);
#25=TOROIDAL_SURFACE('',#374,1.725,0.125);
#26=TOROIDAL_SURFACE('',#375,1.72500000000432,0.125);
#27=CONICAL_SURFACE('',#357,1.35000000000537,0.785398163397449);
#28=CONICAL_SURFACE('',#359,1.35000000000537,0.785398163397448);
#29=CONICAL_SURFACE('',#367,1.35000000000537,0.785398163397449);
#30=CONICAL_SURFACE('',#369,1.35000000000537,0.785398163397448);
#31=ADVANCED_FACE('',(#51),#171,.F.);
#32=ADVANCED_FACE('',(#52),#27,.F.);
#33=ADVANCED_FACE('',(#53),#172,.F.);
#34=ADVANCED_FACE('',(#54),#28,.F.);
#35=ADVANCED_FACE('',(#55),#173,.F.);
#36=ADVANCED_FACE('',(#56),#19,.T.);
#37=ADVANCED_FACE('',(#57),#20,.T.);
#38=ADVANCED_FACE('',(#58),#174,.T.);
#39=ADVANCED_FACE('',(#59),#21,.T.);
#40=ADVANCED_FACE('',(#60),#22,.T.);
#41=ADVANCED_FACE('',(#61),#175,.F.);
#42=ADVANCED_FACE('',(#62),#29,.F.);
#43=ADVANCED_FACE('',(#63),#176,.F.);
#44=ADVANCED_FACE('',(#64),#30,.F.);
#45=ADVANCED_FACE('',(#65),#177,.F.);
#46=ADVANCED_FACE('',(#66),#23,.T.);
#47=ADVANCED_FACE('',(#67),#24,.T.);
#48=ADVANCED_FACE('',(#68),#178,.T.);
#49=ADVANCED_FACE('',(#69),#25,.T.);
#50=ADVANCED_FACE('',(#70),#26,.T.);
#51=FACE_OUTER_BOUND('',#71,.F.);
#52=FACE_OUTER_BOUND('',#72,.F.);
#53=FACE_OUTER_BOUND('',#73,.F.);
#54=FACE_OUTER_BOUND('',#74,.F.);
#55=FACE_OUTER_BOUND('',#75,.F.);
#56=FACE_OUTER_BOUND('',#76,.F.);
#57=FACE_OUTER_BOUND('',#77,.F.);
#58=FACE_OUTER_BOUND('',#78,.F.);
#59=FACE_OUTER_BOUND('',#79,.F.);
#60=FACE_OUTER_BOUND('',#80,.F.);
#61=FACE_OUTER_BOUND('',#81,.F.);
#62=FACE_OUTER_BOUND('',#82,.F.);
#63=FACE_OUTER_BOUND('',#83,.F.);
#64=FACE_OUTER_BOUND('',#84,.F.);
#65=FACE_OUTER_BOUND('',#85,.F.);
#66=FACE_OUTER_BOUND('',#86,.F.);
#67=FACE_OUTER_BOUND('',#87,.F.);
#68=FACE_OUTER_BOUND('',#88,.F.);
#69=FACE_OUTER_BOUND('',#89,.F.);
#70=FACE_OUTER_BOUND('',#90,.F.);
#71=EDGE_LOOP('',(#91,#92,#93,#94));
#72=EDGE_LOOP('',(#95,#96,#97,#98));
#73=EDGE_LOOP('',(#99,#100,#101,#102));
#74=EDGE_LOOP('',(#103,#104,#105,#106));
#75=EDGE_LOOP('',(#107,#108,#109,#110));
#76=EDGE_LOOP('',(#111,#112,#113,#114));
#77=EDGE_LOOP('',(#115,#116,#117,#118));
#78=EDGE_LOOP('',(#119,#120,#121,#122));
#79=EDGE_LOOP('',(#123,#124,#125,#126));
#80=EDGE_LOOP('',(#127,#128,#129,#130));
#81=EDGE_LOOP('',(#131,#132,#133,#134));
#82=EDGE_LOOP('',(#135,#136,#137,#138));
#83=EDGE_LOOP('',(#139,#140,#141,#142));
#84=EDGE_LOOP('',(#143,#144,#145,#146));
#85=EDGE_LOOP('',(#147,#148,#149,#150));
#86=EDGE_LOOP('',(#151,#152,#153,#154));
#87=EDGE_LOOP('',(#155,#156,#157,#158));
#88=EDGE_LOOP('',(#159,#160,#161,#162));
#89=EDGE_LOOP('',(#163,#164,#165,#166));
#90=EDGE_LOOP('',(#167,#168,#169,#170));
#91=ORIENTED_EDGE('',*,*,#211,.T.);
#92=ORIENTED_EDGE('',*,*,#222,.T.);
#93=ORIENTED_EDGE('',*,*,#220,.F.);
#94=ORIENTED_EDGE('',*,*,#221,.F.);
#95=ORIENTED_EDGE('',*,*,#211,.F.);
#96=ORIENTED_EDGE('',*,*,#223,.F.);
#97=ORIENTED_EDGE('',*,*,#212,.T.);
#98=ORIENTED_EDGE('',*,*,#224,.T.);
#99=ORIENTED_EDGE('',*,*,#212,.F.);
#100=ORIENTED_EDGE('',*,*,#225,.F.);
#101=ORIENTED_EDGE('',*,*,#213,.T.);
#102=ORIENTED_EDGE('',*,*,#226,.T.);
#103=ORIENTED_EDGE('',*,*,#213,.F.);
#104=ORIENTED_EDGE('',*,*,#227,.F.);
#105=ORIENTED_EDGE('',*,*,#214,.T.);
#106=ORIENTED_EDGE('',*,*,#228,.T.);
#107=ORIENTED_EDGE('',*,*,#214,.F.);
#108=ORIENTED_EDGE('',*,*,#229,.F.);
#109=ORIENTED_EDGE('',*,*,#215,.T.);
#110=ORIENTED_EDGE('',*,*,#230,.T.);
#111=ORIENTED_EDGE('',*,*,#215,.F.);
#112=ORIENTED_EDGE('',*,*,#231,.F.);
#113=ORIENTED_EDGE('',*,*,#216,.T.);
#114=ORIENTED_EDGE('',*,*,#232,.F.);
#115=ORIENTED_EDGE('',*,*,#216,.F.);
#116=ORIENTED_EDGE('',*,*,#233,.F.);
#117=ORIENTED_EDGE('',*,*,#217,.T.);
#118=ORIENTED_EDGE('',*,*,#234,.F.);
#119=ORIENTED_EDGE('',*,*,#217,.F.);
#120=ORIENTED_EDGE('',*,*,#235,.F.);
#121=ORIENTED_EDGE('',*,*,#218,.T.);
#122=ORIENTED_EDGE('',*,*,#236,.T.);
#123=ORIENTED_EDGE('',*,*,#218,.F.);
#124=ORIENTED_EDGE('',*,*,#237,.F.);
#125=ORIENTED_EDGE('',*,*,#219,.T.);
#126=ORIENTED_EDGE('',*,*,#238,.F.);
#127=ORIENTED_EDGE('',*,*,#219,.F.);
#128=ORIENTED_EDGE('',*,*,#239,.F.);
#129=ORIENTED_EDGE('',*,*,#220,.T.);
#130=ORIENTED_EDGE('',*,*,#240,.F.);
#131=ORIENTED_EDGE('',*,*,#221,.T.);
#132=ORIENTED_EDGE('',*,*,#250,.F.);
#133=ORIENTED_EDGE('',*,*,#222,.F.);
#134=ORIENTED_EDGE('',*,*,#241,.T.);
#135=ORIENTED_EDGE('',*,*,#223,.T.);
#136=ORIENTED_EDGE('',*,*,#241,.F.);
#137=ORIENTED_EDGE('',*,*,#224,.F.);
#138=ORIENTED_EDGE('',*,*,#242,.T.);
#139=ORIENTED_EDGE('',*,*,#225,.T.);
#140=ORIENTED_EDGE('',*,*,#242,.F.);
#141=ORIENTED_EDGE('',*,*,#226,.F.);
#142=ORIENTED_EDGE('',*,*,#243,.T.);
#143=ORIENTED_EDGE('',*,*,#227,.T.);
#144=ORIENTED_EDGE('',*,*,#243,.F.);
#145=ORIENTED_EDGE('',*,*,#228,.F.);
#146=ORIENTED_EDGE('',*,*,#244,.T.);
#147=ORIENTED_EDGE('',*,*,#229,.T.);
#148=ORIENTED_EDGE('',*,*,#244,.F.);
#149=ORIENTED_EDGE('',*,*,#230,.F.);
#150=ORIENTED_EDGE('',*,*,#245,.T.);
#151=ORIENTED_EDGE('',*,*,#231,.T.);
#152=ORIENTED_EDGE('',*,*,#245,.F.);
#153=ORIENTED_EDGE('',*,*,#232,.T.);
#154=ORIENTED_EDGE('',*,*,#246,.T.);
#155=ORIENTED_EDGE('',*,*,#233,.T.);
#156=ORIENTED_EDGE('',*,*,#246,.F.);
#157=ORIENTED_EDGE('',*,*,#234,.T.);
#158=ORIENTED_EDGE('',*,*,#247,.T.);
#159=ORIENTED_EDGE('',*,*,#235,.T.);
#160=ORIENTED_EDGE('',*,*,#247,.F.);
#161=ORIENTED_EDGE('',*,*,#236,.F.);
#162=ORIENTED_EDGE('',*,*,#248,.T.);
#163=ORIENTED_EDGE('',*,*,#237,.T.);
#164=ORIENTED_EDGE('',*,*,#248,.F.);
#165=ORIENTED_EDGE('',*,*,#238,.T.);
#166=ORIENTED_EDGE('',*,*,#249,.T.);
#167=ORIENTED_EDGE('',*,*,#239,.T.);
#168=ORIENTED_EDGE('',*,*,#249,.F.);
#169=ORIENTED_EDGE('',*,*,#240,.T.);
#170=ORIENTED_EDGE('',*,*,#250,.T.);
#171=CYLINDRICAL_SURFACE('',#356,1.60000000000382);
#172=CYLINDRICAL_SURFACE('',#358,1.35000000000537);
#173=CYLINDRICAL_SURFACE('',#360,1.60000000000405);
#174=CYLINDRICAL_SURFACE('',#363,1.85);
#175=CYLINDRICAL_SURFACE('',#366,1.60000000000382);
#176=CYLINDRICAL_SURFACE('',#368,1.35000000000537);
#177=CYLINDRICAL_SURFACE('',#370,1.60000000000405);
#178=CYLINDRICAL_SURFACE('',#373,1.85);
#179=STYLED_ITEM('',(#180),#17);
#180=PRESENTATION_STYLE_ASSIGNMENT((#181));
#181=SURFACE_STYLE_USAGE(.BOTH.,#182);
#182=SURFACE_SIDE_STYLE('',(#183));
#183=SURFACE_STYLE_FILL_AREA(#184);
#184=FILL_AREA_STYLE('',(#185));
#185=FILL_AREA_STYLE_COLOUR('',#186);
#186=COLOUR_RGB('Colour',0.376470588235294,0.376470588235294,0.376470588235294);
#187=LINE('',#526,#199);
#188=LINE('',#527,#200);
#189=LINE('',#528,#201);
#190=LINE('',#529,#202);
#191=LINE('',#530,#203);
#192=LINE('',#531,#204);
#193=LINE('',#532,#205);
#194=LINE('',#533,#206);
#195=LINE('',#534,#207);
#196=LINE('',#535,#208);
#197=LINE('',#540,#209);
#198=LINE('',#541,#210);
#199=VECTOR('',#402,1.3250000000034);
#200=VECTOR('',#403,1.3250000000034);
#201=VECTOR('',#404,0.35355339059038);
#202=VECTOR('',#405,0.353553390590379);
#203=VECTOR('',#406,0.500000000002728);
#204=VECTOR('',#407,0.500000000002728);
#205=VECTOR('',#408,0.353553390590058);
#206=VECTOR('',#409,0.353553390590058);
#207=VECTOR('',#410,1.12500000000351);
#208=VECTOR('',#411,1.12500000000351);
#209=VECTOR('',#420,3.45000000000501);
#210=VECTOR('',#421,3.45000000000501);
#211=EDGE_CURVE('',#298,#297,#251,.T.);
#212=EDGE_CURVE('',#296,#295,#252,.T.);
#213=EDGE_CURVE('',#294,#293,#253,.T.);
#214=EDGE_CURVE('',#292,#291,#254,.T.);
#215=EDGE_CURVE('',#290,#289,#255,.T.);
#216=EDGE_CURVE('',#288,#287,#256,.T.);
#217=EDGE_CURVE('',#286,#285,#257,.T.);
#218=EDGE_CURVE('',#284,#283,#258,.T.);
#219=EDGE_CURVE('',#282,#281,#259,.T.);
#220=EDGE_CURVE('',#280,#279,#260,.T.);
#221=EDGE_CURVE('',#298,#280,#187,.T.);
#222=EDGE_CURVE('',#297,#279,#188,.T.);
#223=EDGE_CURVE('',#296,#298,#189,.T.);
#224=EDGE_CURVE('',#295,#297,#190,.T.);
#225=EDGE_CURVE('',#294,#296,#191,.T.);
#226=EDGE_CURVE('',#293,#295,#192,.T.);
#227=EDGE_CURVE('',#292,#294,#193,.T.);
#228=EDGE_CURVE('',#291,#293,#194,.T.);
#229=EDGE_CURVE('',#290,#292,#195,.T.);
#230=EDGE_CURVE('',#289,#291,#196,.T.);
#231=EDGE_CURVE('',#288,#290,#261,.T.);
#232=EDGE_CURVE('',#289,#287,#262,.T.);
#233=EDGE_CURVE('',#286,#288,#263,.T.);
#234=EDGE_CURVE('',#287,#285,#264,.T.);
#235=EDGE_CURVE('',#284,#286,#197,.T.);
#236=EDGE_CURVE('',#283,#285,#198,.T.);
#237=EDGE_CURVE('',#282,#284,#265,.T.);
#238=EDGE_CURVE('',#283,#281,#266,.T.);
#239=EDGE_CURVE('',#280,#282,#267,.T.);
#240=EDGE_CURVE('',#281,#279,#268,.T.);
#241=EDGE_CURVE('',#297,#298,#269,.T.);
#242=EDGE_CURVE('',#295,#296,#270,.T.);
#243=EDGE_CURVE('',#293,#294,#271,.T.);
#244=EDGE_CURVE('',#291,#292,#272,.T.);
#245=EDGE_CURVE('',#289,#290,#273,.T.);
#246=EDGE_CURVE('',#287,#288,#274,.T.);
#247=EDGE_CURVE('',#285,#286,#275,.T.);
#248=EDGE_CURVE('',#283,#284,#276,.T.);
#249=EDGE_CURVE('',#281,#282,#277,.T.);
#250=EDGE_CURVE('',#279,#280,#278,.T.);
#251=CIRCLE('',#328,1.60000000000332);
#252=CIRCLE('',#329,1.35000000000537);
#253=CIRCLE('',#330,1.35000000000537);
#254=CIRCLE('',#331,1.60000000000309);
#255=CIRCLE('',#332,1.60000000000501);
#256=CIRCLE('',#333,1.72500000000501);
#257=CIRCLE('',#334,1.85);
#258=CIRCLE('',#335,1.85);
#259=CIRCLE('',#336,1.725);
#260=CIRCLE('',#337,1.60000000000432);
#261=CIRCLE('',#338,0.125);
#262=CIRCLE('',#339,0.125);
#263=CIRCLE('',#340,0.125);
#264=CIRCLE('',#341,0.125);
#265=CIRCLE('',#342,0.125);
#266=CIRCLE('',#343,0.125);
#267=CIRCLE('',#344,0.125);
#268=CIRCLE('',#345,0.125);
#269=CIRCLE('',#346,1.60000000000332);
#270=CIRCLE('',#347,1.35000000000537);
#271=CIRCLE('',#348,1.35000000000537);
#272=CIRCLE('',#349,1.60000000000309);
#273=CIRCLE('',#350,1.60000000000501);
#274=CIRCLE('',#351,1.72500000000501);
#275=CIRCLE('',#352,1.85);
#276=CIRCLE('',#353,1.85);
#277=CIRCLE('',#354,1.725);
#278=CIRCLE('',#355,1.60000000000432);
#279=VERTEX_POINT('',#496);
#280=VERTEX_POINT('',#497);
#281=VERTEX_POINT('',#498);
#282=VERTEX_POINT('',#499);
#283=VERTEX_POINT('',#500);
#284=VERTEX_POINT('',#501);
#285=VERTEX_POINT('',#502);
#286=VERTEX_POINT('',#503);
#287=VERTEX_POINT('',#504);
#288=VERTEX_POINT('',#505);
#289=VERTEX_POINT('',#506);
#290=VERTEX_POINT('',#507);
#291=VERTEX_POINT('',#508);
#292=VERTEX_POINT('',#509);
#293=VERTEX_POINT('',#510);
#294=VERTEX_POINT('',#511);
#295=VERTEX_POINT('',#512);
#296=VERTEX_POINT('',#513);
#297=VERTEX_POINT('',#514);
#298=VERTEX_POINT('',#515);
#299=PRODUCT_CATEGORY_RELATIONSHIP('','',#303,#301);
#300=PRODUCT_CATEGORY_RELATIONSHIP('','',#304,#302);
#301=PRODUCT_RELATED_PRODUCT_CATEGORY('detail','',(#316));
#302=PRODUCT_RELATED_PRODUCT_CATEGORY('detail','',(#317));
#303=PRODUCT_CATEGORY('part','');
#304=PRODUCT_CATEGORY('part','');
#305=SHAPE_DEFINITION_REPRESENTATION(#307,#324);
#306=SHAPE_DEFINITION_REPRESENTATION(#308,#325);
#307=PRODUCT_DEFINITION_SHAPE('','Shape',#310);
#308=PRODUCT_DEFINITION_SHAPE('','Shape',#311);
#309=PRODUCT_DEFINITION_SHAPE('','',#12);
#310=PRODUCT_DEFINITION('','',#312,#314);
#311=PRODUCT_DEFINITION('','',#313,#315);
#312=PRODUCT_DEFINITION_FORMATION('','',#316);
#313=PRODUCT_DEFINITION_FORMATION('','',#317);
#314=PRODUCT_DEFINITION_CONTEXT('part definition',#322,'');
#315=PRODUCT_DEFINITION_CONTEXT('part definition',#323,'');
#316=PRODUCT('0393-63-03','0393-63-03','not specified',(#318));
#317=PRODUCT('0353-19-98','0353-19-98','not specified',(#319));
#318=PRODUCT_CONTEXT('',#322,'mechanical');
#319=PRODUCT_CONTEXT('',#323,'mechanical');
#320=APPLICATION_PROTOCOL_DEFINITION('Draft International Standard',
'automotive_design',1997,#322);
#321=APPLICATION_PROTOCOL_DEFINITION('Draft International Standard',
'automotive_design',1997,#323);
#322=APPLICATION_CONTEXT('automotive design');
#323=APPLICATION_CONTEXT('automotive design');
#324=SHAPE_REPRESENTATION('0393-63-03',(#326,#377),#578);
#325=SHAPE_REPRESENTATION('0353-19-98',(#327),#579);
#326=AXIS2_PLACEMENT_3D('',#494,#378,#379);
#327=AXIS2_PLACEMENT_3D('',#495,#380,#381);
#328=AXIS2_PLACEMENT_3D('',#516,#382,#383);
#329=AXIS2_PLACEMENT_3D('',#517,#384,#385);
#330=AXIS2_PLACEMENT_3D('',#518,#386,#387);
#331=AXIS2_PLACEMENT_3D('',#519,#388,#389);
#332=AXIS2_PLACEMENT_3D('',#520,#390,#391);
#333=AXIS2_PLACEMENT_3D('',#521,#392,#393);
#334=AXIS2_PLACEMENT_3D('',#522,#394,#395);
#335=AXIS2_PLACEMENT_3D('',#523,#396,#397);
#336=AXIS2_PLACEMENT_3D('',#524,#398,#399);
#337=AXIS2_PLACEMENT_3D('',#525,#400,#401);
#338=AXIS2_PLACEMENT_3D('',#536,#412,#413);
#339=AXIS2_PLACEMENT_3D('',#537,#414,#415);
#340=AXIS2_PLACEMENT_3D('',#538,#416,#417);
#341=AXIS2_PLACEMENT_3D('',#539,#418,#419);
#342=AXIS2_PLACEMENT_3D('',#542,#422,#423);
#343=AXIS2_PLACEMENT_3D('',#543,#424,#425);
#344=AXIS2_PLACEMENT_3D('',#544,#426,#427);
#345=AXIS2_PLACEMENT_3D('',#545,#428,#429);
#346=AXIS2_PLACEMENT_3D('',#546,#430,#431);
#347=AXIS2_PLACEMENT_3D('',#547,#432,#433);
#348=AXIS2_PLACEMENT_3D('',#548,#434,#435);
#349=AXIS2_PLACEMENT_3D('',#549,#436,#437);
#350=AXIS2_PLACEMENT_3D('',#550,#438,#439);
#351=AXIS2_PLACEMENT_3D('',#551,#440,#441);
#352=AXIS2_PLACEMENT_3D('',#552,#442,#443);
#353=AXIS2_PLACEMENT_3D('',#553,#444,#445);
#354=AXIS2_PLACEMENT_3D('',#554,#446,#447);
#355=AXIS2_PLACEMENT_3D('',#555,#448,#449);
#356=AXIS2_PLACEMENT_3D('',#556,#450,#451);
#357=AXIS2_PLACEMENT_3D('',#557,#453,#452);
#358=AXIS2_PLACEMENT_3D('',#558,#454,#455);
#359=AXIS2_PLACEMENT_3D('',#559,#457,#456);
#360=AXIS2_PLACEMENT_3D('',#560,#458,#459);
#361=AXIS2_PLACEMENT_3D('',#561,#460,#461);
#362=AXIS2_PLACEMENT_3D('',#562,#462,#463);
#363=AXIS2_PLACEMENT_3D('',#563,#464,#465);
#364=AXIS2_PLACEMENT_3D('',#564,#466,#467);
#365=AXIS2_PLACEMENT_3D('',#565,#468,#469);
#366=AXIS2_PLACEMENT_3D('',#566,#470,#471);
#367=AXIS2_PLACEMENT_3D('',#567,#473,#472);
#368=AXIS2_PLACEMENT_3D('',#568,#474,#475);
#369=AXIS2_PLACEMENT_3D('',#569,#477,#476);
#370=AXIS2_PLACEMENT_3D('',#570,#478,#479);
#371=AXIS2_PLACEMENT_3D('',#571,#480,#481);
#372=AXIS2_PLACEMENT_3D('',#572,#482,#483);
#373=AXIS2_PLACEMENT_3D('',#573,#484,#485);
#374=AXIS2_PLACEMENT_3D('',#574,#486,#487);
#375=AXIS2_PLACEMENT_3D('',#575,#488,#489);
#376=AXIS2_PLACEMENT_3D('',#576,#490,#491);
#377=AXIS2_PLACEMENT_3D('',#577,#492,#493);
#378=DIRECTION('',(0.,0.,1.));
#379=DIRECTION('',(1.,0.,0.));
#380=DIRECTION('',(0.,0.,1.));
#381=DIRECTION('',(1.,0.,0.));
#382=DIRECTION('',(0.,-1.,0.));
#383=DIRECTION('',(0.,0.,1.));
#384=DIRECTION('',(0.,-1.,0.));
#385=DIRECTION('',(0.,0.,1.));
#386=DIRECTION('',(0.,-1.,0.));
#387=DIRECTION('',(0.,0.,1.));
#388=DIRECTION('',(0.,-1.,0.));
#389=DIRECTION('',(0.,0.,1.));
#390=DIRECTION('',(0.,-1.,0.));
#391=DIRECTION('',(0.,0.,1.));
#392=DIRECTION('',(0.,-1.,0.));
#393=DIRECTION('',(0.,0.,1.));
#394=DIRECTION('',(0.,-1.,0.));
#395=DIRECTION('',(0.,0.,1.));
#396=DIRECTION('',(0.,-1.,0.));
#397=DIRECTION('',(0.,0.,1.));
#398=DIRECTION('',(0.,-1.,0.));
#399=DIRECTION('',(0.,0.,1.));
#400=DIRECTION('',(0.,-1.,0.));
#401=DIRECTION('',(0.,0.,1.));
#402=DIRECTION('',(0.,-1.,0.));
#403=DIRECTION('',(0.,-1.,0.));
#404=DIRECTION('',(0.,-0.707106781186548,0.707106781186548));
#405=DIRECTION('',(0.,-0.707106781186549,-0.707106781186546));
#406=DIRECTION('',(0.,-1.,0.));
#407=DIRECTION('',(0.,-1.,0.));
#408=DIRECTION('',(0.,-0.707106781186548,-0.707106781186548));
#409=DIRECTION('',(0.,-0.707106781186548,0.707106781186548));
#410=DIRECTION('',(0.,-1.,0.));
#411=DIRECTION('',(0.,-1.,0.));
#412=DIRECTION('',(-1.,0.,0.));
#413=DIRECTION('',(0.,1.,0.));
#414=DIRECTION('',(-1.,0.,0.));
#415=DIRECTION('',(0.,0.,1.));
#416=DIRECTION('',(-1.,0.,0.));
#417=DIRECTION('',(0.,0.,1.));
#418=DIRECTION('',(-1.,0.,0.));
#419=DIRECTION('',(0.,1.,0.));
#420=DIRECTION('',(0.,1.,0.));
#421=DIRECTION('',(0.,1.,0.));
#422=DIRECTION('',(-1.,0.,0.));
#423=DIRECTION('',(0.,-1.,0.));
#424=DIRECTION('',(-1.,0.,0.));
#425=DIRECTION('',(0.,0.,-1.));
#426=DIRECTION('',(-1.,0.,0.));
#427=DIRECTION('',(0.,0.,-1.));
#428=DIRECTION('',(-1.,0.,0.));
#429=DIRECTION('',(0.,-1.,0.));
#430=DIRECTION('',(0.,-1.,0.));
#431=DIRECTION('',(0.,0.,-1.));
#432=DIRECTION('',(0.,-1.,0.));
#433=DIRECTION('',(0.,0.,-1.));
#434=DIRECTION('',(0.,-1.,0.));
#435=DIRECTION('',(0.,0.,-1.));
#436=DIRECTION('',(0.,-1.,0.));
#437=DIRECTION('',(0.,0.,-1.));
#438=DIRECTION('',(0.,-1.,0.));
#439=DIRECTION('',(0.,0.,-1.));
#440=DIRECTION('',(0.,-1.,0.));
#441=DIRECTION('',(0.,0.,-1.));
#442=DIRECTION('',(0.,-1.,0.));
#443=DIRECTION('',(0.,0.,-1.));
#444=DIRECTION('',(0.,-1.,0.));
#445=DIRECTION('',(0.,0.,-1.));
#446=DIRECTION('',(0.,-1.,0.));
#447=DIRECTION('',(0.,0.,-1.));
#448=DIRECTION('',(0.,-1.,0.));
#449=DIRECTION('',(0.,0.,-1.));
#450=DIRECTION('',(0.,-1.,0.));
#451=DIRECTION('',(0.,0.,1.));
#452=DIRECTION('',(0.,0.,1.));
#453=DIRECTION('',(0.,-1.,0.));
#454=DIRECTION('',(0.,-1.,0.));
#455=DIRECTION('',(0.,0.,1.));
#456=DIRECTION('',(0.,0.,1.));
#457=DIRECTION('',(0.,1.,0.));
#458=DIRECTION('',(0.,-1.,0.));
#459=DIRECTION('',(0.,0.,1.));
#460=DIRECTION('',(0.,-1.,0.));
#461=DIRECTION('',(0.,0.,-1.));
#462=DIRECTION('',(0.,-1.,0.));
#463=DIRECTION('',(0.,0.,-1.));
#464=DIRECTION('',(0.,-1.,0.));
#465=DIRECTION('',(0.,0.,1.));
#466=DIRECTION('',(0.,-1.,0.));
#467=DIRECTION('',(0.,0.,-1.));
#468=DIRECTION('',(0.,-1.,0.));
#469=DIRECTION('',(0.,0.,-1.));
#470=DIRECTION('',(0.,-1.,0.));
#471=DIRECTION('',(0.,0.,-1.));
#472=DIRECTION('',(0.,0.,-1.));
#473=DIRECTION('',(0.,-1.,0.));
#474=DIRECTION('',(0.,-1.,0.));
#475=DIRECTION('',(0.,0.,-1.));
#476=DIRECTION('',(0.,0.,-1.));
#477=DIRECTION('',(0.,1.,0.));
#478=DIRECTION('',(0.,-1.,0.));
#479=DIRECTION('',(0.,0.,-1.));
#480=DIRECTION('',(0.,-1.,0.));
#481=DIRECTION('',(0.,0.,-1.));
#482=DIRECTION('',(0.,-1.,0.));
#483=DIRECTION('',(0.,0.,-1.));
#484=DIRECTION('',(0.,-1.,0.));
#485=DIRECTION('',(0.,0.,-1.));
#486=DIRECTION('',(0.,-1.,0.));
#487=DIRECTION('',(0.,0.,-1.));
#488=DIRECTION('',(0.,-1.,0.));
#489=DIRECTION('',(0.,0.,-1.));
#490=DIRECTION('',(0.,0.,1.));
#491=DIRECTION('',(1.,0.,0.));
#492=DIRECTION('',(0.,0.,1.));
#493=DIRECTION('',(1.,0.,0.));
#494=CARTESIAN_POINT('',(0.,0.,0.));
#495=CARTESIAN_POINT('',(0.,0.,0.));
#496=CARTESIAN_POINT('',(0.,-3.32500000000385,-1.60000000000433));
#497=CARTESIAN_POINT('',(0.,-3.32500000000385,1.60000000000407));
#498=CARTESIAN_POINT('',(0.,-3.45000000000375,-1.72500000000108));
#499=CARTESIAN_POINT('',(0.,-3.45000000000375,1.72500000000108));
#500=CARTESIAN_POINT('',(0.,-3.32500000000376,-1.85));
#501=CARTESIAN_POINT('',(0.,-3.32500000000375,1.85));
#502=CARTESIAN_POINT('',(0.,0.125000000001254,-1.85));
#503=CARTESIAN_POINT('',(0.,0.125000000001258,1.85));
#504=CARTESIAN_POINT('',(0.,0.250000000001254,-1.72500000000376));
#505=CARTESIAN_POINT('',(0.,0.250000000001258,1.72500000000375));
#506=CARTESIAN_POINT('',(0.,0.125000000001467,-1.60000000000501));
#507=CARTESIAN_POINT('',(0.,0.125000000001471,1.60000000000453));
#508=CARTESIAN_POINT('',(0.,-1.00000000000204,-1.60000000000309));
#509=CARTESIAN_POINT('',(0.,-1.00000000000204,1.60000000000357));
#510=CARTESIAN_POINT('',(0.,-1.24999999999977,-1.35000000000537));
#511=CARTESIAN_POINT('',(0.,-1.24999999999977,1.35000000000536));
#512=CARTESIAN_POINT('',(0.,-1.7500000000025,-1.35000000000537));
#513=CARTESIAN_POINT('',(0.,-1.75000000000249,1.35000000000536));
#514=CARTESIAN_POINT('',(0.,-2.00000000000045,-1.60000000000332));
#515=CARTESIAN_POINT('',(0.,-2.00000000000045,1.60000000000357));
#516=CARTESIAN_POINT('',(0.,-2.00000000000045,0.));
#517=CARTESIAN_POINT('',(0.,-1.7500000000025,0.));
#518=CARTESIAN_POINT('',(0.,-1.24999999999977,0.));
#519=CARTESIAN_POINT('',(0.,-1.00000000000204,0.));
#520=CARTESIAN_POINT('',(0.,0.125000000001471,0.));
#521=CARTESIAN_POINT('',(0.,0.250000000001258,0.));
#522=CARTESIAN_POINT('',(0.,0.125000000001258,0.));
#523=CARTESIAN_POINT('',(0.,-3.32500000000375,0.));
#524=CARTESIAN_POINT('',(0.,-3.45000000000375,0.));
#525=CARTESIAN_POINT('',(0.,-3.32500000000385,0.));
#526=CARTESIAN_POINT('',(0.,-2.00000000000045,1.60000000000432));
#527=CARTESIAN_POINT('',(0.,-2.00000000000045,-1.60000000000332));
#528=CARTESIAN_POINT('',(0.,-1.75000000000249,1.35000000000536));
#529=CARTESIAN_POINT('',(0.,-1.7500000000025,-1.35000000000537));
#530=CARTESIAN_POINT('',(0.,-1.24999999999977,1.35000000000536));
#531=CARTESIAN_POINT('',(0.,-1.24999999999977,-1.35000000000537));
#532=CARTESIAN_POINT('',(0.,-1.00000000000204,1.60000000000309));
#533=CARTESIAN_POINT('',(0.,-1.00000000000204,-1.60000000000309));
#534=CARTESIAN_POINT('',(0.,0.125000000001471,1.60000000000309));
#535=CARTESIAN_POINT('',(0.,0.125000000001467,-1.60000000000501));
#536=CARTESIAN_POINT('',(0.,0.125000000001258,1.72500000000501));
#537=CARTESIAN_POINT('',(0.,0.125000000001254,-1.72500000000501));
#538=CARTESIAN_POINT('',(0.,0.125000000001258,1.725));
#539=CARTESIAN_POINT('',(0.,0.125000000001254,-1.725));
#540=CARTESIAN_POINT('',(0.,-3.32500000000375,1.85));
#541=CARTESIAN_POINT('',(0.,-3.32500000000376,-1.85));
#542=CARTESIAN_POINT('',(0.,-3.32500000000375,1.725));
#543=CARTESIAN_POINT('',(0.,-3.32500000000375,-1.725));
#544=CARTESIAN_POINT('',(0.,-3.32500000000375,1.72500000000432));
#545=CARTESIAN_POINT('',(0.,-3.32500000000375,-1.72500000000433));
#546=CARTESIAN_POINT('',(0.,-2.00000000000045,0.));
#547=CARTESIAN_POINT('',(0.,-1.7500000000025,0.));
#548=CARTESIAN_POINT('',(0.,-1.24999999999977,0.));
#549=CARTESIAN_POINT('',(0.,-1.00000000000204,0.));
#550=CARTESIAN_POINT('',(0.,0.125000000001471,0.));
#551=CARTESIAN_POINT('',(0.,0.250000000001258,0.));
#552=CARTESIAN_POINT('',(0.,0.125000000001258,0.));
#553=CARTESIAN_POINT('',(0.,-3.32500000000375,0.));
#554=CARTESIAN_POINT('',(0.,-3.45000000000375,0.));
#555=CARTESIAN_POINT('',(0.,-3.32500000000385,0.));
#556=CARTESIAN_POINT('',(0.,-2.00000000000045,0.));
#557=CARTESIAN_POINT('',(0.,-1.75000000000249,0.));
#558=CARTESIAN_POINT('',(0.,-1.24999999999977,0.));
#559=CARTESIAN_POINT('',(0.,-1.24999999999977,0.));
#560=CARTESIAN_POINT('',(0.,0.12500000000147,0.));
#561=CARTESIAN_POINT('',(0.,0.125000000001257,0.));
#562=CARTESIAN_POINT('',(0.,0.125000000001257,0.));
#563=CARTESIAN_POINT('',(0.,-3.32500000000375,0.));
#564=CARTESIAN_POINT('',(0.,-3.32500000000375,0.));
#565=CARTESIAN_POINT('',(0.,-3.32500000000375,0.));
#566=CARTESIAN_POINT('',(0.,-2.00000000000045,0.));
#567=CARTESIAN_POINT('',(0.,-1.7500000000025,0.));
#568=CARTESIAN_POINT('',(0.,-1.24999999999977,0.));
#569=CARTESIAN_POINT('',(0.,-1.24999999999977,0.));
#570=CARTESIAN_POINT('',(0.,0.125000000001468,0.));
#571=CARTESIAN_POINT('',(0.,0.125000000001255,0.));
#572=CARTESIAN_POINT('',(0.,0.125000000001255,0.));
#573=CARTESIAN_POINT('',(0.,-3.32500000000376,0.));
#574=CARTESIAN_POINT('',(0.,-3.32500000000375,0.));
#575=CARTESIAN_POINT('',(0.,-3.32500000000375,0.));
#576=CARTESIAN_POINT('',(0.,0.,0.));
#577=CARTESIAN_POINT('',(0.,0.,0.));
#578=(
GEOMETRIC_REPRESENTATION_CONTEXT(3)
GLOBAL_UNCERTAINTY_ASSIGNED_CONTEXT((#581))
GLOBAL_UNIT_ASSIGNED_CONTEXT((#590,#587,#584))
REPRESENTATION_CONTEXT('','')
);
#579=(
GEOMETRIC_REPRESENTATION_CONTEXT(3)
GLOBAL_UNCERTAINTY_ASSIGNED_CONTEXT((#582))
GLOBAL_UNIT_ASSIGNED_CONTEXT((#591,#588,#585))
REPRESENTATION_CONTEXT('','')
);
#580=(
GEOMETRIC_REPRESENTATION_CONTEXT(3)
GLOBAL_UNCERTAINTY_ASSIGNED_CONTEXT((#583))
GLOBAL_UNIT_ASSIGNED_CONTEXT((#592,#589,#586))
REPRESENTATION_CONTEXT('','')
);
#581=UNCERTAINTY_MEASURE_WITH_UNIT(LENGTH_MEASURE(0.001),#590,'TOL_CRV',
'CONFUSED CURVE UNCERTAINTY');
#582=UNCERTAINTY_MEASURE_WITH_UNIT(LENGTH_MEASURE(0.001),#591,'TOL_CRV',
'CONFUSED CURVE UNCERTAINTY');
#583=UNCERTAINTY_MEASURE_WITH_UNIT(LENGTH_MEASURE(0.001),#592,'TOL_CRV',
'CONFUSED CURVE UNCERTAINTY');
#584=(
NAMED_UNIT(*)
SI_UNIT($,.STERADIAN.)
SOLID_ANGLE_UNIT()
);
#585=(
NAMED_UNIT(*)
SI_UNIT($,.STERADIAN.)
SOLID_ANGLE_UNIT()
);
#586=(
NAMED_UNIT(*)
SI_UNIT($,.STERADIAN.)
SOLID_ANGLE_UNIT()
);
#587=(
NAMED_UNIT(*)
PLANE_ANGLE_UNIT()
SI_UNIT($,.RADIAN.)
);
#588=(
NAMED_UNIT(*)
PLANE_ANGLE_UNIT()
SI_UNIT($,.RADIAN.)
);
#589=(
NAMED_UNIT(*)
PLANE_ANGLE_UNIT()
SI_UNIT($,.RADIAN.)
);
#590=(
LENGTH_UNIT()
NAMED_UNIT(*)
SI_UNIT(.MILLI.,.METRE.)
);
#591=(
LENGTH_UNIT()
NAMED_UNIT(*)
SI_UNIT(.MILLI.,.METRE.)
);
#592=(
LENGTH_UNIT()
NAMED_UNIT(*)
SI_UNIT(.MILLI.,.METRE.)
);
ENDSEC;
END-ISO-10303-21;
