ISO-10303-21;
HEADER;
/* Generated by software containing ST-Developer
 * from STEP Tools, Inc. (www.steptools.com) 
 */
/* OPTION: using custom schema-name function */

FILE_DESCRIPTION(
/* description */ ('VariCAD 2015-3.01 AP-214'),
/* implementation_level */ '2;1');

FILE_NAME(
/* name */ '0393-83-01.stp',
/* time_stamp */ '2015-12-18T03:33:29-07:00',
/* author */ (''),
/* organization */ (''),
/* preprocessor_version */ 'ST-DEVELOPER v14',
/* originating_system */ 'VariCAD 2015-3.01; kernel version (20130303)',

/* authorisation */ '');

FILE_SCHEMA (('AUTOMOTIVE_DESIGN'));
ENDSEC;

DATA;
#10=MECHANICAL_DESIGN_GEOMETRIC_PRESENTATION_REPRESENTATION('',(#83),#272);
#11=CONTEXT_DEPENDENT_SHAPE_REPRESENTATION(#13,#149);
#12=NEXT_ASSEMBLY_USAGE_OCCURRENCE('','','',#150,#151,'');
#13=(
REPRESENTATION_RELATIONSHIP('','',#164,#165)
REPRESENTATION_RELATIONSHIP_WITH_TRANSFORMATION(#14)
SHAPE_REPRESENTATION_RELATIONSHIP()
);
#14=ITEM_DEFINED_TRANSFORMATION('','',#185,#167);
#15=SHAPE_REPRESENTATION_RELATIONSHIP('','',#165,#16);
#16=ADVANCED_BREP_SHAPE_REPRESENTATION('',(#17,#184),#271);
#17=MANIFOLD_SOLID_BREP('',#18);
#18=CLOSED_SHELL('',(#19,#20,#21,#22,#23,#24,#25,#26));
#19=ADVANCED_FACE('',(#27),#75,.F.);
#20=ADVANCED_FACE('',(#28),#76,.F.);
#21=ADVANCED_FACE('',(#29),#77,.T.);
#22=ADVANCED_FACE('',(#30),#78,.T.);
#23=ADVANCED_FACE('',(#31),#79,.T.);
#24=ADVANCED_FACE('',(#32),#80,.T.);
#25=ADVANCED_FACE('',(#33),#81,.F.);
#26=ADVANCED_FACE('',(#34),#82,.F.);
#27=FACE_OUTER_BOUND('',#35,.F.);
#28=FACE_OUTER_BOUND('',#36,.F.);
#29=FACE_OUTER_BOUND('',#37,.F.);
#30=FACE_OUTER_BOUND('',#38,.F.);
#31=FACE_OUTER_BOUND('',#39,.F.);
#32=FACE_OUTER_BOUND('',#40,.F.);
#33=FACE_OUTER_BOUND('',#41,.F.);
#34=FACE_OUTER_BOUND('',#42,.F.);
#35=EDGE_LOOP('',(#43,#44,#45,#46));
#36=EDGE_LOOP('',(#47,#48,#49,#50));
#37=EDGE_LOOP('',(#51,#52,#53,#54));
#38=EDGE_LOOP('',(#55,#56,#57,#58));
#39=EDGE_LOOP('',(#59,#60,#61,#62));
#40=EDGE_LOOP('',(#63,#64,#65,#66));
#41=EDGE_LOOP('',(#67,#68,#69,#70));
#42=EDGE_LOOP('',(#71,#72,#73,#74));
#43=ORIENTED_EDGE('',*,*,#112,.F.);
#44=ORIENTED_EDGE('',*,*,#99,.F.);
#45=ORIENTED_EDGE('',*,*,#114,.T.);
#46=ORIENTED_EDGE('',*,*,#101,.T.);
#47=ORIENTED_EDGE('',*,*,#109,.T.);
#48=ORIENTED_EDGE('',*,*,#103,.F.);
#49=ORIENTED_EDGE('',*,*,#114,.F.);
#50=ORIENTED_EDGE('',*,*,#105,.T.);
#51=ORIENTED_EDGE('',*,*,#113,.T.);
#52=ORIENTED_EDGE('',*,*,#106,.F.);
#53=ORIENTED_EDGE('',*,*,#104,.F.);
#54=ORIENTED_EDGE('',*,*,#108,.T.);
#55=ORIENTED_EDGE('',*,*,#113,.F.);
#56=ORIENTED_EDGE('',*,*,#110,.F.);
#57=ORIENTED_EDGE('',*,*,#100,.T.);
#58=ORIENTED_EDGE('',*,*,#111,.T.);
#59=ORIENTED_EDGE('',*,*,#110,.T.);
#60=ORIENTED_EDGE('',*,*,#107,.F.);
#61=ORIENTED_EDGE('',*,*,#111,.F.);
#62=ORIENTED_EDGE('',*,*,#112,.T.);
#63=ORIENTED_EDGE('',*,*,#106,.T.);
#64=ORIENTED_EDGE('',*,*,#107,.T.);
#65=ORIENTED_EDGE('',*,*,#108,.F.);
#66=ORIENTED_EDGE('',*,*,#109,.F.);
#67=ORIENTED_EDGE('',*,*,#103,.T.);
#68=ORIENTED_EDGE('',*,*,#104,.T.);
#69=ORIENTED_EDGE('',*,*,#105,.F.);
#70=ORIENTED_EDGE('',*,*,#102,.F.);
#71=ORIENTED_EDGE('',*,*,#99,.T.);
#72=ORIENTED_EDGE('',*,*,#100,.F.);
#73=ORIENTED_EDGE('',*,*,#101,.F.);
#74=ORIENTED_EDGE('',*,*,#102,.T.);
#75=CONICAL_SURFACE('',#176,1.51003028998693,1.4551364518369);
#76=CONICAL_SURFACE('',#177,1.58559471001306,0.115659874957997);
#77=CONICAL_SURFACE('',#178,1.54813608972562,1.4551364518369);
#78=CONICAL_SURFACE('',#179,3.13498891027437,0.115659874957986);
#79=CONICAL_SURFACE('',#180,3.13498891027437,0.115659874957986);
#80=CONICAL_SURFACE('',#181,1.54813608972562,1.4551364518369);
#81=CONICAL_SURFACE('',#182,1.58559471001306,0.115659874957997);
#82=CONICAL_SURFACE('',#183,1.51003028998693,1.4551364518369);
#83=STYLED_ITEM('',(#84),#17);
#84=PRESENTATION_STYLE_ASSIGNMENT((#85));
#85=SURFACE_STYLE_USAGE(.BOTH.,#86);
#86=SURFACE_SIDE_STYLE('',(#87));
#87=SURFACE_STYLE_FILL_AREA(#88);
#88=FILL_AREA_STYLE('',(#89));
#89=FILL_AREA_STYLE_COLOUR('',#90);
#90=COLOUR_RGB('Colour',0.792156862745098,0.792156862745098,0.870588235294118);
#91=CIRCLE('',#168,3.13689420026131);
#92=CIRCLE('',#169,1.5875);
#93=CIRCLE('',#170,1.62560579973869);
#94=CIRCLE('',#171,3.175);
#95=CIRCLE('',#172,1.62560579973869);
#96=CIRCLE('',#173,3.13689420026131);
#97=CIRCLE('',#174,3.175);
#98=CIRCLE('',#175,1.5875);
#99=EDGE_CURVE('',#138,#137,#115,.T.);
#100=EDGE_CURVE('',#136,#137,#91,.T.);
#101=EDGE_CURVE('',#135,#136,#116,.T.);
#102=EDGE_CURVE('',#135,#138,#92,.T.);
#103=EDGE_CURVE('',#135,#134,#117,.T.);
#104=EDGE_CURVE('',#134,#133,#93,.T.);
#105=EDGE_CURVE('',#138,#133,#118,.T.);
#106=EDGE_CURVE('',#133,#132,#119,.T.);
#107=EDGE_CURVE('',#132,#131,#94,.T.);
#108=EDGE_CURVE('',#134,#131,#120,.T.);
#109=EDGE_CURVE('',#133,#134,#95,.T.);
#110=EDGE_CURVE('',#136,#131,#121,.T.);
#111=EDGE_CURVE('',#137,#132,#122,.T.);
#112=EDGE_CURVE('',#137,#136,#96,.T.);
#113=EDGE_CURVE('',#131,#132,#97,.T.);
#114=EDGE_CURVE('',#138,#135,#98,.T.);
#115=LINE('',#244,#123);
#116=LINE('',#246,#124);
#117=LINE('',#248,#125);
#118=LINE('',#250,#126);
#119=LINE('',#251,#127);
#120=LINE('',#253,#128);
#121=LINE('',#255,#129);
#122=LINE('',#256,#130);
#123=VECTOR('',#190,1.55981556267214);
#124=VECTOR('',#193,1.55981556267214);
#125=VECTOR('',#196,0.330200000000006);
#126=VECTOR('',#199,0.330199999999992);
#127=VECTOR('',#200,1.55981556267214);
#128=VECTOR('',#203,1.55981556267214);
#129=VECTOR('',#206,0.330200000000006);
#130=VECTOR('',#207,0.330199999999993);
#131=VERTEX_POINT('',#236);
#132=VERTEX_POINT('',#237);
#133=VERTEX_POINT('',#238);
#134=VERTEX_POINT('',#239);
#135=VERTEX_POINT('',#240);
#136=VERTEX_POINT('',#241);
#137=VERTEX_POINT('',#242);
#138=VERTEX_POINT('',#243);
#139=PRODUCT_CATEGORY_RELATIONSHIP('','',#143,#141);
#140=PRODUCT_CATEGORY_RELATIONSHIP('','',#144,#142);
#141=PRODUCT_RELATED_PRODUCT_CATEGORY('detail','',(#156));
#142=PRODUCT_RELATED_PRODUCT_CATEGORY('detail','',(#157));
#143=PRODUCT_CATEGORY('part','');
#144=PRODUCT_CATEGORY('part','');
#145=SHAPE_DEFINITION_REPRESENTATION(#147,#164);
#146=SHAPE_DEFINITION_REPRESENTATION(#148,#165);
#147=PRODUCT_DEFINITION_SHAPE('','Shape',#150);
#148=PRODUCT_DEFINITION_SHAPE('','Shape',#151);
#149=PRODUCT_DEFINITION_SHAPE('','',#12);
#150=PRODUCT_DEFINITION('','',#152,#154);
#151=PRODUCT_DEFINITION('','',#153,#155);
#152=PRODUCT_DEFINITION_FORMATION('','',#156);
#153=PRODUCT_DEFINITION_FORMATION('','',#157);
#154=PRODUCT_DEFINITION_CONTEXT('part definition',#162,'');
#155=PRODUCT_DEFINITION_CONTEXT('part definition',#163,'');
#156=PRODUCT('0393-83-01','0393-83-01','not specified',(#158));
#157=PRODUCT('0393-83-01','0393-83-01','not specified',(#159));
#158=PRODUCT_CONTEXT('',#162,'mechanical');
#159=PRODUCT_CONTEXT('',#163,'mechanical');
#160=APPLICATION_PROTOCOL_DEFINITION('Draft International Standard',
'automotive_design',1997,#162);
#161=APPLICATION_PROTOCOL_DEFINITION('Draft International Standard',
'automotive_design',1997,#163);
#162=APPLICATION_CONTEXT('automotive design');
#163=APPLICATION_CONTEXT('automotive design');
#164=SHAPE_REPRESENTATION('0393-83-01',(#166,#185),#270);
#165=SHAPE_REPRESENTATION('0393-83-01',(#167),#271);
#166=AXIS2_PLACEMENT_3D('',#234,#186,#187);
#167=AXIS2_PLACEMENT_3D('',#235,#188,#189);
#168=AXIS2_PLACEMENT_3D('',#245,#191,#192);
#169=AXIS2_PLACEMENT_3D('',#247,#194,#195);
#170=AXIS2_PLACEMENT_3D('',#249,#197,#198);
#171=AXIS2_PLACEMENT_3D('',#252,#201,#202);
#172=AXIS2_PLACEMENT_3D('',#254,#204,#205);
#173=AXIS2_PLACEMENT_3D('',#257,#208,#209);
#174=AXIS2_PLACEMENT_3D('',#258,#210,#211);
#175=AXIS2_PLACEMENT_3D('',#259,#212,#213);
#176=AXIS2_PLACEMENT_3D('',#260,#215,#214);
#177=AXIS2_PLACEMENT_3D('',#261,#217,#216);
#178=AXIS2_PLACEMENT_3D('',#262,#219,#218);
#179=AXIS2_PLACEMENT_3D('',#263,#221,#220);
#180=AXIS2_PLACEMENT_3D('',#264,#223,#222);
#181=AXIS2_PLACEMENT_3D('',#265,#225,#224);
#182=AXIS2_PLACEMENT_3D('',#266,#227,#226);
#183=AXIS2_PLACEMENT_3D('',#267,#229,#228);
#184=AXIS2_PLACEMENT_3D('',#268,#230,#231);
#185=AXIS2_PLACEMENT_3D('',#269,#232,#233);
#186=DIRECTION('',(0.,0.,1.));
#187=DIRECTION('',(1.,0.,0.));
#188=DIRECTION('',(0.,0.,1.));
#189=DIRECTION('',(1.,0.,0.));
#190=DIRECTION('',(0.,-0.115402179705309,-0.993318849574125));
#191=DIRECTION('',(0.,-1.,0.));
#192=DIRECTION('',(0.,0.,1.));
#193=DIRECTION('',(0.,-0.115402179705302,0.993318849574126));
#194=DIRECTION('',(0.,-1.,0.));
#195=DIRECTION('',(0.,0.,1.));
#196=DIRECTION('',(0.,0.993318849574133,0.115402179705246));
#197=DIRECTION('',(0.,-1.,0.));
#198=DIRECTION('',(0.,0.,1.));
#199=DIRECTION('',(0.,0.993318849574172,-0.115402179704909));
#200=DIRECTION('',(0.,-0.115402179705309,-0.993318849574125));
#201=DIRECTION('',(0.,-1.,0.));
#202=DIRECTION('',(0.,0.,-1.));
#203=DIRECTION('',(0.,-0.115402179705302,0.993318849574126));
#204=DIRECTION('',(0.,-1.,0.));
#205=DIRECTION('',(0.,0.,-1.));
#206=DIRECTION('',(0.,0.993318849574133,0.115402179705246));
#207=DIRECTION('',(0.,0.993318849574172,-0.115402179704909));
#208=DIRECTION('',(0.,-1.,0.));
#209=DIRECTION('',(0.,0.,-1.));
#210=DIRECTION('',(0.,-1.,0.));
#211=DIRECTION('',(0.,0.,1.));
#212=DIRECTION('',(0.,-1.,0.));
#213=DIRECTION('',(0.,0.,-1.));
#214=DIRECTION('',(-0.0871557427476541,0.,0.996194698091746));
#215=DIRECTION('',(0.,-1.,0.));
#216=DIRECTION('',(-0.0871557427476417,0.,-0.996194698091747));
#217=DIRECTION('',(0.,1.,0.));
#218=DIRECTION('',(0.0871557427476646,0.,0.996194698091745));
#219=DIRECTION('',(0.,-1.,0.));
#220=DIRECTION('',(0.0871557427476587,0.,-0.996194698091745));
#221=DIRECTION('',(0.,1.,0.));
#222=DIRECTION('',(-0.0871557427476587,0.,0.996194698091745));
#223=DIRECTION('',(0.,1.,0.));
#224=DIRECTION('',(-0.0871557427476616,0.,-0.996194698091745));
#225=DIRECTION('',(0.,-1.,0.));
#226=DIRECTION('',(0.0871557427476763,0.,0.996194698091744));
#227=DIRECTION('',(0.,1.,0.));
#228=DIRECTION('',(0.0871557427476511,0.,-0.996194698091746));
#229=DIRECTION('',(0.,-1.,0.));
#230=DIRECTION('',(0.,0.,1.));
#231=DIRECTION('',(1.,0.,0.));
#232=DIRECTION('',(0.,0.,1.));
#233=DIRECTION('',(1.,0.,0.));
#234=CARTESIAN_POINT('',(0.,0.,0.));
#235=CARTESIAN_POINT('',(0.,0.,0.));
#236=CARTESIAN_POINT('',(0.,0.327993884129395,3.17499999999995));
#237=CARTESIAN_POINT('',(0.,0.32799388412938,-3.17499999999995));
#238=CARTESIAN_POINT('',(0.,0.508000000000008,-1.62560579973865));
#239=CARTESIAN_POINT('',(0.,0.508000000000012,1.62560579973865));
#240=CARTESIAN_POINT('',(0.,0.180006115870628,1.58749999999998));
#241=CARTESIAN_POINT('',(0.,0.,3.13689420026128));
#242=CARTESIAN_POINT('',(0.,0.,-3.13689420026139));
#243=CARTESIAN_POINT('',(0.,0.180006115870624,-1.58750000000009));
#244=CARTESIAN_POINT('',(0.,0.180006115870624,-1.58750000000009));
#245=CARTESIAN_POINT('',(0.,0.,0.));
#246=CARTESIAN_POINT('',(0.,0.180006115870628,1.58749999999998));
#247=CARTESIAN_POINT('',(0.,0.180006115870626,0.));
#248=CARTESIAN_POINT('',(0.,0.180006115870628,1.58749999999998));
#249=CARTESIAN_POINT('',(0.,0.50800000000001,0.));
#250=CARTESIAN_POINT('',(0.,0.180006115870624,-1.58750000000009));
#251=CARTESIAN_POINT('',(0.,0.508000000000008,-1.62560579973865));
#252=CARTESIAN_POINT('',(0.,0.327993884129384,0.));
#253=CARTESIAN_POINT('',(0.,0.508000000000012,1.62560579973865));
#254=CARTESIAN_POINT('',(0.,0.50800000000001,0.));
#255=CARTESIAN_POINT('',(0.,0.,3.13689420026128));
#256=CARTESIAN_POINT('',(0.,0.,-3.13689420026139));
#257=CARTESIAN_POINT('',(0.,0.,0.));
#258=CARTESIAN_POINT('',(0.,0.327993884129384,0.));
#259=CARTESIAN_POINT('',(0.,0.180006115870626,0.));
#260=CARTESIAN_POINT('',(0.,0.189006421664161,0.));
#261=CARTESIAN_POINT('',(0.,0.163606421664155,0.));
#262=CARTESIAN_POINT('',(0.,0.517000305793531,0.));
#263=CARTESIAN_POINT('',(0.,-0.0163996942064566,0.));
#264=CARTESIAN_POINT('',(0.,-0.0163996942064619,0.));
#265=CARTESIAN_POINT('',(0.,0.51700030579353,0.));
#266=CARTESIAN_POINT('',(0.,0.163606421664157,0.));
#267=CARTESIAN_POINT('',(0.,0.18900642166416,0.));
#268=CARTESIAN_POINT('',(0.,0.,0.));
#269=CARTESIAN_POINT('',(0.,0.,0.));
#270=(
GEOMETRIC_REPRESENTATION_CONTEXT(3)
GLOBAL_UNCERTAINTY_ASSIGNED_CONTEXT((#273))
GLOBAL_UNIT_ASSIGNED_CONTEXT((#282,#279,#276))
REPRESENTATION_CONTEXT('','')
);
#271=(
GEOMETRIC_REPRESENTATION_CONTEXT(3)
GLOBAL_UNCERTAINTY_ASSIGNED_CONTEXT((#274))
GLOBAL_UNIT_ASSIGNED_CONTEXT((#283,#280,#277))
REPRESENTATION_CONTEXT('','')
);
#272=(
GEOMETRIC_REPRESENTATION_CONTEXT(3)
GLOBAL_UNCERTAINTY_ASSIGNED_CONTEXT((#275))
GLOBAL_UNIT_ASSIGNED_CONTEXT((#284,#281,#278))
REPRESENTATION_CONTEXT('','')
);
#273=UNCERTAINTY_MEASURE_WITH_UNIT(LENGTH_MEASURE(0.001),#282,'TOL_CRV',
'CONFUSED CURVE UNCERTAINTY');
#274=UNCERTAINTY_MEASURE_WITH_UNIT(LENGTH_MEASURE(0.001),#283,'TOL_CRV',
'CONFUSED CURVE UNCERTAINTY');
#275=UNCERTAINTY_MEASURE_WITH_UNIT(LENGTH_MEASURE(0.001),#284,'TOL_CRV',
'CONFUSED CURVE UNCERTAINTY');
#276=(
NAMED_UNIT(*)
SI_UNIT($,.STERADIAN.)
SOLID_ANGLE_UNIT()
);
#277=(
NAMED_UNIT(*)
SI_UNIT($,.STERADIAN.)
SOLID_ANGLE_UNIT()
);
#278=(
NAMED_UNIT(*)
SI_UNIT($,.STERADIAN.)
SOLID_ANGLE_UNIT()
);
#279=(
NAMED_UNIT(*)
PLANE_ANGLE_UNIT()
SI_UNIT($,.RADIAN.)
);
#280=(
NAMED_UNIT(*)
PLANE_ANGLE_UNIT()
SI_UNIT($,.RADIAN.)
);
#281=(
NAMED_UNIT(*)
PLANE_ANGLE_UNIT()
SI_UNIT($,.RADIAN.)
);
#282=(
LENGTH_UNIT()
NAMED_UNIT(*)
SI_UNIT(.MILLI.,.METRE.)
);
#283=(
LENGTH_UNIT()
NAMED_UNIT(*)
SI_UNIT(.MILLI.,.METRE.)
);
#284=(
LENGTH_UNIT()
NAMED_UNIT(*)
SI_UNIT(.MILLI.,.METRE.)
);
ENDSEC;
END-ISO-10303-21;
