ISO-10303-21;
HEADER;
/* Generated by software containing ST-Developer
 * from STEP Tools, Inc. (www.steptools.com) 
 */
/* OPTION: using custom schema-name function */

FILE_DESCRIPTION(
/* description */ ('VariCAD 2015-3.01 AP-214'),
/* implementation_level */ '2;1');

FILE_NAME(
/* name */ '0353-19-23.stp',
/* time_stamp */ '2015-12-14T19:44:30-07:00',
/* author */ (''),
/* organization */ (''),
/* preprocessor_version */ 'ST-DEVELOPER v14',
/* originating_system */ 'VariCAD 2015-3.01; kernel version (20130303)',

/* authorisation */ '');

FILE_SCHEMA (('AUTOMOTIVE_DESIGN'));
ENDSEC;

DATA;
#10=MECHANICAL_DESIGN_GEOMETRIC_PRESENTATION_REPRESENTATION('',(#71),#232);
#11=CONTEXT_DEPENDENT_SHAPE_REPRESENTATION(#13,#125);
#12=NEXT_ASSEMBLY_USAGE_OCCURRENCE('','','',#126,#127,'');
#13=(
REPRESENTATION_RELATIONSHIP('','',#140,#141)
REPRESENTATION_RELATIONSHIP_WITH_TRANSFORMATION(#14)
SHAPE_REPRESENTATION_RELATIONSHIP()
);
#14=ITEM_DEFINED_TRANSFORMATION('','',#159,#143);
#15=SHAPE_REPRESENTATION_RELATIONSHIP('','',#141,#16);
#16=ADVANCED_BREP_SHAPE_REPRESENTATION('',(#17,#158),#231);
#17=MANIFOLD_SOLID_BREP('',#18);
#18=CLOSED_SHELL('',(#23,#24,#25,#26,#27,#28));
#19=FACE_BOUND('',#37,.F.);
#20=FACE_BOUND('',#40,.F.);
#21=PLANE('',#154);
#22=PLANE('',#156);
#23=ADVANCED_FACE('',(#29),#67,.F.);
#24=ADVANCED_FACE('',(#30),#68,.T.);
#25=ADVANCED_FACE('',(#19,#31),#21,.T.);
#26=ADVANCED_FACE('',(#32),#69,.F.);
#27=ADVANCED_FACE('',(#20,#33),#22,.T.);
#28=ADVANCED_FACE('',(#34),#70,.T.);
#29=FACE_OUTER_BOUND('',#35,.F.);
#30=FACE_OUTER_BOUND('',#36,.F.);
#31=FACE_OUTER_BOUND('',#38,.F.);
#32=FACE_OUTER_BOUND('',#39,.F.);
#33=FACE_OUTER_BOUND('',#41,.F.);
#34=FACE_OUTER_BOUND('',#42,.F.);
#35=EDGE_LOOP('',(#43,#44,#45,#46));
#36=EDGE_LOOP('',(#47,#48,#49,#50));
#37=EDGE_LOOP('',(#51,#52));
#38=EDGE_LOOP('',(#53,#54));
#39=EDGE_LOOP('',(#55,#56,#57,#58));
#40=EDGE_LOOP('',(#59,#60));
#41=EDGE_LOOP('',(#61,#62));
#42=EDGE_LOOP('',(#63,#64,#65,#66));
#43=ORIENTED_EDGE('',*,*,#87,.F.);
#44=ORIENTED_EDGE('',*,*,#92,.F.);
#45=ORIENTED_EDGE('',*,*,#88,.F.);
#46=ORIENTED_EDGE('',*,*,#91,.T.);
#47=ORIENTED_EDGE('',*,*,#89,.T.);
#48=ORIENTED_EDGE('',*,*,#94,.F.);
#49=ORIENTED_EDGE('',*,*,#90,.T.);
#50=ORIENTED_EDGE('',*,*,#93,.T.);
#51=ORIENTED_EDGE('',*,*,#95,.T.);
#52=ORIENTED_EDGE('',*,*,#87,.T.);
#53=ORIENTED_EDGE('',*,*,#98,.F.);
#54=ORIENTED_EDGE('',*,*,#90,.F.);
#55=ORIENTED_EDGE('',*,*,#91,.F.);
#56=ORIENTED_EDGE('',*,*,#96,.F.);
#57=ORIENTED_EDGE('',*,*,#92,.T.);
#58=ORIENTED_EDGE('',*,*,#95,.F.);
#59=ORIENTED_EDGE('',*,*,#96,.T.);
#60=ORIENTED_EDGE('',*,*,#88,.T.);
#61=ORIENTED_EDGE('',*,*,#97,.F.);
#62=ORIENTED_EDGE('',*,*,#89,.F.);
#63=ORIENTED_EDGE('',*,*,#93,.F.);
#64=ORIENTED_EDGE('',*,*,#98,.T.);
#65=ORIENTED_EDGE('',*,*,#94,.T.);
#66=ORIENTED_EDGE('',*,*,#97,.T.);
#67=CYLINDRICAL_SURFACE('',#152,6.);
#68=CYLINDRICAL_SURFACE('',#153,8.);
#69=CYLINDRICAL_SURFACE('',#155,6.);
#70=CYLINDRICAL_SURFACE('',#157,8.);
#71=STYLED_ITEM('',(#72),#17);
#72=PRESENTATION_STYLE_ASSIGNMENT((#73));
#73=SURFACE_STYLE_USAGE(.BOTH.,#74);
#74=SURFACE_SIDE_STYLE('',(#75));
#75=SURFACE_STYLE_FILL_AREA(#76);
#76=FILL_AREA_STYLE('',(#77));
#77=FILL_AREA_STYLE_COLOUR('',#78);
#78=COLOUR_RGB('Colour',0.717647058823529,0.666666666666667,0.862745098039216);
#79=LINE('',#214,#83);
#80=LINE('',#215,#84);
#81=LINE('',#216,#85);
#82=LINE('',#217,#86);
#83=VECTOR('',#172,144.);
#84=VECTOR('',#173,144.);
#85=VECTOR('',#174,144.);
#86=VECTOR('',#175,144.);
#87=EDGE_CURVE('',#114,#113,#99,.T.);
#88=EDGE_CURVE('',#112,#111,#100,.T.);
#89=EDGE_CURVE('',#110,#109,#101,.T.);
#90=EDGE_CURVE('',#108,#107,#102,.T.);
#91=EDGE_CURVE('',#112,#113,#79,.T.);
#92=EDGE_CURVE('',#111,#114,#80,.T.);
#93=EDGE_CURVE('',#107,#110,#81,.T.);
#94=EDGE_CURVE('',#108,#109,#82,.T.);
#95=EDGE_CURVE('',#113,#114,#103,.T.);
#96=EDGE_CURVE('',#111,#112,#104,.T.);
#97=EDGE_CURVE('',#109,#110,#105,.T.);
#98=EDGE_CURVE('',#107,#108,#106,.T.);
#99=CIRCLE('',#144,6.);
#100=CIRCLE('',#145,6.);
#101=CIRCLE('',#146,8.);
#102=CIRCLE('',#147,8.);
#103=CIRCLE('',#148,6.);
#104=CIRCLE('',#149,6.);
#105=CIRCLE('',#150,8.);
#106=CIRCLE('',#151,8.);
#107=VERTEX_POINT('',#202);
#108=VERTEX_POINT('',#203);
#109=VERTEX_POINT('',#204);
#110=VERTEX_POINT('',#205);
#111=VERTEX_POINT('',#206);
#112=VERTEX_POINT('',#207);
#113=VERTEX_POINT('',#208);
#114=VERTEX_POINT('',#209);
#115=PRODUCT_CATEGORY_RELATIONSHIP('','',#119,#117);
#116=PRODUCT_CATEGORY_RELATIONSHIP('','',#120,#118);
#117=PRODUCT_RELATED_PRODUCT_CATEGORY('detail','',(#132));
#118=PRODUCT_RELATED_PRODUCT_CATEGORY('detail','',(#133));
#119=PRODUCT_CATEGORY('part','');
#120=PRODUCT_CATEGORY('part','');
#121=SHAPE_DEFINITION_REPRESENTATION(#123,#140);
#122=SHAPE_DEFINITION_REPRESENTATION(#124,#141);
#123=PRODUCT_DEFINITION_SHAPE('','Shape',#126);
#124=PRODUCT_DEFINITION_SHAPE('','Shape',#127);
#125=PRODUCT_DEFINITION_SHAPE('','',#12);
#126=PRODUCT_DEFINITION('','',#128,#130);
#127=PRODUCT_DEFINITION('','',#129,#131);
#128=PRODUCT_DEFINITION_FORMATION('','',#132);
#129=PRODUCT_DEFINITION_FORMATION('','',#133);
#130=PRODUCT_DEFINITION_CONTEXT('part definition',#138,'');
#131=PRODUCT_DEFINITION_CONTEXT('part definition',#139,'');
#132=PRODUCT('0353-19-23','0353-19-23','not specified',(#134));
#133=PRODUCT('0353-19-23','0353-19-23','not specified',(#135));
#134=PRODUCT_CONTEXT('',#138,'mechanical');
#135=PRODUCT_CONTEXT('',#139,'mechanical');
#136=APPLICATION_PROTOCOL_DEFINITION('Draft International Standard',
'automotive_design',1997,#138);
#137=APPLICATION_PROTOCOL_DEFINITION('Draft International Standard',
'automotive_design',1997,#139);
#138=APPLICATION_CONTEXT('automotive design');
#139=APPLICATION_CONTEXT('automotive design');
#140=SHAPE_REPRESENTATION('0353-19-23',(#142,#159),#230);
#141=SHAPE_REPRESENTATION('0353-19-23',(#143),#231);
#142=AXIS2_PLACEMENT_3D('',#200,#160,#161);
#143=AXIS2_PLACEMENT_3D('',#201,#162,#163);
#144=AXIS2_PLACEMENT_3D('',#210,#164,#165);
#145=AXIS2_PLACEMENT_3D('',#211,#166,#167);
#146=AXIS2_PLACEMENT_3D('',#212,#168,#169);
#147=AXIS2_PLACEMENT_3D('',#213,#170,#171);
#148=AXIS2_PLACEMENT_3D('',#218,#176,#177);
#149=AXIS2_PLACEMENT_3D('',#219,#178,#179);
#150=AXIS2_PLACEMENT_3D('',#220,#180,#181);
#151=AXIS2_PLACEMENT_3D('',#221,#182,#183);
#152=AXIS2_PLACEMENT_3D('',#222,#184,#185);
#153=AXIS2_PLACEMENT_3D('',#223,#186,#187);
#154=AXIS2_PLACEMENT_3D('',#224,#188,#189);
#155=AXIS2_PLACEMENT_3D('',#225,#190,#191);
#156=AXIS2_PLACEMENT_3D('',#226,#192,#193);
#157=AXIS2_PLACEMENT_3D('',#227,#194,#195);
#158=AXIS2_PLACEMENT_3D('',#228,#196,#197);
#159=AXIS2_PLACEMENT_3D('',#229,#198,#199);
#160=DIRECTION('',(0.,0.,1.));
#161=DIRECTION('',(1.,0.,0.));
#162=DIRECTION('',(0.,0.,1.));
#163=DIRECTION('',(1.,0.,0.));
#164=DIRECTION('',(0.,1.,0.));
#165=DIRECTION('',(-0.17364817766693,0.,0.984807753012208));
#166=DIRECTION('',(0.,-1.,0.));
#167=DIRECTION('',(0.17364817766693,0.,-0.984807753012208));
#168=DIRECTION('',(0.,-1.,0.));
#169=DIRECTION('',(0.17364817766693,0.,-0.984807753012208));
#170=DIRECTION('',(0.,1.,0.));
#171=DIRECTION('',(-0.17364817766693,0.,0.984807753012208));
#172=DIRECTION('',(0.,1.,0.));
#173=DIRECTION('',(0.,1.,0.));
#174=DIRECTION('',(0.,-1.,0.));
#175=DIRECTION('',(0.,-1.,0.));
#176=DIRECTION('',(0.,1.,0.));
#177=DIRECTION('',(0.17364817766693,0.,-0.984807753012208));
#178=DIRECTION('',(0.,-1.,0.));
#179=DIRECTION('',(-0.17364817766693,0.,0.984807753012208));
#180=DIRECTION('',(0.,-1.,0.));
#181=DIRECTION('',(-0.173648177666931,0.,0.984807753012208));
#182=DIRECTION('',(0.,1.,0.));
#183=DIRECTION('',(0.17364817766693,0.,-0.984807753012208));
#184=DIRECTION('',(0.,-1.,0.));
#185=DIRECTION('',(0.17364817766693,0.,-0.984807753012208));
#186=DIRECTION('',(0.,-1.,0.));
#187=DIRECTION('',(0.173648177666931,0.,-0.984807753012208));
#188=DIRECTION('',(0.,1.,0.));
#189=DIRECTION('',(-0.984807753012208,0.,-0.173648177666931));
#190=DIRECTION('',(0.,-1.,0.));
#191=DIRECTION('',(-0.173648177666931,0.,0.984807753012208));
#192=DIRECTION('',(0.,-1.,0.));
#193=DIRECTION('',(0.984807753012208,0.,0.17364817766693));
#194=DIRECTION('',(0.,-1.,0.));
#195=DIRECTION('',(-0.173648177666931,0.,0.984807753012208));
#196=DIRECTION('',(0.,0.,1.));
#197=DIRECTION('',(1.,0.,0.));
#198=DIRECTION('',(0.,0.,1.));
#199=DIRECTION('',(1.,0.,0.));
#200=CARTESIAN_POINT('',(0.,0.,0.));
#201=CARTESIAN_POINT('',(0.,0.,0.));
#202=CARTESIAN_POINT('',(-16.7910091603352,66.7999996555208,89.3017322150294));
#203=CARTESIAN_POINT('',(-19.569380003006,66.7999996555208,105.058656263225));
#204=CARTESIAN_POINT('',(-19.5693800030061,-77.2000003444792,105.058656263225));
#205=CARTESIAN_POINT('',(-16.7910091603352,-77.2000003444792,89.3017322150294));
#206=CARTESIAN_POINT('',(-19.2220836476722,-77.2000003444792,103.0890407572));
#207=CARTESIAN_POINT('',(-17.1383055156691,-77.2000003444792,91.2713477210538));
#208=CARTESIAN_POINT('',(-17.138305515669,66.7999996555208,91.2713477210538));
#209=CARTESIAN_POINT('',(-19.2220836476722,66.7999996555208,103.0890407572));
#210=CARTESIAN_POINT('',(-18.1801945816706,66.7999996555208,97.1801942391271));
#211=CARTESIAN_POINT('',(-18.1801945816707,-77.2000003444792,97.180194239127));
#212=CARTESIAN_POINT('',(-18.1801945816707,-77.2000003444792,97.180194239127));
#213=CARTESIAN_POINT('',(-18.1801945816706,66.7999996555208,97.1801942391271));
#214=CARTESIAN_POINT('',(-17.1383055156691,-77.2000003444792,91.2713477210538));
#215=CARTESIAN_POINT('',(-19.2220836476722,-77.2000003444792,103.0890407572));
#216=CARTESIAN_POINT('',(-16.7910091603352,66.7999996555208,89.3017322150294));
#217=CARTESIAN_POINT('',(-19.569380003006,66.7999996555208,105.058656263225));
#218=CARTESIAN_POINT('',(-18.1801945816706,66.7999996555208,97.1801942391271));
#219=CARTESIAN_POINT('',(-18.1801945816707,-77.2000003444792,97.180194239127));
#220=CARTESIAN_POINT('',(-18.1801945816707,-77.2000003444792,97.180194239127));
#221=CARTESIAN_POINT('',(-18.1801945816706,66.7999996555208,97.1801942391271));
#222=CARTESIAN_POINT('',(-18.1801945816707,-77.2000003444792,97.180194239127));
#223=CARTESIAN_POINT('',(-18.1801945816706,66.7999996555208,97.1801942391271));
#224=CARTESIAN_POINT('',(-8.72719418732884,66.7999996555208,90.5611321043096));
#225=CARTESIAN_POINT('',(-18.1801945816707,-77.2000003444792,97.180194239127));
#226=CARTESIAN_POINT('',(-24.7992567164881,-77.2000003444792,87.7271938447853));
#227=CARTESIAN_POINT('',(-18.1801945816706,66.7999996555208,97.1801942391271));
#228=CARTESIAN_POINT('',(0.,0.,0.));
#229=CARTESIAN_POINT('',(0.,0.,0.));
#230=(
GEOMETRIC_REPRESENTATION_CONTEXT(3)
GLOBAL_UNCERTAINTY_ASSIGNED_CONTEXT((#233))
GLOBAL_UNIT_ASSIGNED_CONTEXT((#242,#239,#236))
REPRESENTATION_CONTEXT('','')
);
#231=(
GEOMETRIC_REPRESENTATION_CONTEXT(3)
GLOBAL_UNCERTAINTY_ASSIGNED_CONTEXT((#234))
GLOBAL_UNIT_ASSIGNED_CONTEXT((#243,#240,#237))
REPRESENTATION_CONTEXT('','')
);
#232=(
GEOMETRIC_REPRESENTATION_CONTEXT(3)
GLOBAL_UNCERTAINTY_ASSIGNED_CONTEXT((#235))
GLOBAL_UNIT_ASSIGNED_CONTEXT((#244,#241,#238))
REPRESENTATION_CONTEXT('','')
);
#233=UNCERTAINTY_MEASURE_WITH_UNIT(LENGTH_MEASURE(0.001),#242,'TOL_CRV',
'CONFUSED CURVE UNCERTAINTY');
#234=UNCERTAINTY_MEASURE_WITH_UNIT(LENGTH_MEASURE(0.001),#243,'TOL_CRV',
'CONFUSED CURVE UNCERTAINTY');
#235=UNCERTAINTY_MEASURE_WITH_UNIT(LENGTH_MEASURE(0.001),#244,'TOL_CRV',
'CONFUSED CURVE UNCERTAINTY');
#236=(
NAMED_UNIT(*)
SI_UNIT($,.STERADIAN.)
SOLID_ANGLE_UNIT()
);
#237=(
NAMED_UNIT(*)
SI_UNIT($,.STERADIAN.)
SOLID_ANGLE_UNIT()
);
#238=(
NAMED_UNIT(*)
SI_UNIT($,.STERADIAN.)
SOLID_ANGLE_UNIT()
);
#239=(
NAMED_UNIT(*)
PLANE_ANGLE_UNIT()
SI_UNIT($,.RADIAN.)
);
#240=(
NAMED_UNIT(*)
PLANE_ANGLE_UNIT()
SI_UNIT($,.RADIAN.)
);
#241=(
NAMED_UNIT(*)
PLANE_ANGLE_UNIT()
SI_UNIT($,.RADIAN.)
);
#242=(
LENGTH_UNIT()
NAMED_UNIT(*)
SI_UNIT(.MILLI.,.METRE.)
);
#243=(
LENGTH_UNIT()
NAMED_UNIT(*)
SI_UNIT(.MILLI.,.METRE.)
);
#244=(
LENGTH_UNIT()
NAMED_UNIT(*)
SI_UNIT(.MILLI.,.METRE.)
);
ENDSEC;
END-ISO-10303-21;
