ISO-10303-21;
HEADER;
/* Generated by software containing ST-Developer
 * from STEP Tools, Inc. (www.steptools.com) 
 */
/* OPTION: using custom schema-name function */

FILE_DESCRIPTION(
/* description */ ('VariCAD 2015-3.01 AP-214'),
/* implementation_level */ '2;1');

FILE_NAME(
/* name */ '0393-30-18.stp',
/* time_stamp */ '2016-05-28T23:55:10-06:00',
/* author */ (''),
/* organization */ (''),
/* preprocessor_version */ 'ST-DEVELOPER v14',
/* originating_system */ 'VariCAD 2015-3.01; kernel version (20130303)',

/* authorisation */ '');

FILE_SCHEMA (('AUTOMOTIVE_DESIGN'));
ENDSEC;

DATA;
#10=MECHANICAL_DESIGN_GEOMETRIC_PRESENTATION_REPRESENTATION('',(#51),#176);
#11=CONTEXT_DEPENDENT_SHAPE_REPRESENTATION(#13,#89);
#12=NEXT_ASSEMBLY_USAGE_OCCURRENCE('','','',#90,#91,'');
#13=(
REPRESENTATION_RELATIONSHIP('','',#104,#105)
REPRESENTATION_RELATIONSHIP_WITH_TRANSFORMATION(#14)
SHAPE_REPRESENTATION_RELATIONSHIP()
);
#14=ITEM_DEFINED_TRANSFORMATION('','',#121,#107);
#15=SHAPE_REPRESENTATION_RELATIONSHIP('','',#105,#16);
#16=ADVANCED_BREP_SHAPE_REPRESENTATION('',(#17,#120),#175);
#17=MANIFOLD_SOLID_BREP('',#18);
#18=CLOSED_SHELL('',(#19,#20,#21,#22));
#19=ADVANCED_FACE('',(#23),#47,.T.);
#20=ADVANCED_FACE('',(#24),#48,.T.);
#21=ADVANCED_FACE('',(#25),#49,.T.);
#22=ADVANCED_FACE('',(#26),#50,.T.);
#23=FACE_OUTER_BOUND('',#27,.F.);
#24=FACE_OUTER_BOUND('',#28,.F.);
#25=FACE_OUTER_BOUND('',#29,.F.);
#26=FACE_OUTER_BOUND('',#30,.F.);
#27=EDGE_LOOP('',(#31,#32,#33,#34));
#28=EDGE_LOOP('',(#35,#36,#37,#38));
#29=EDGE_LOOP('',(#39,#40,#41,#42));
#30=EDGE_LOOP('',(#43,#44,#45,#46));
#31=ORIENTED_EDGE('',*,*,#59,.F.);
#32=ORIENTED_EDGE('',*,*,#61,.F.);
#33=ORIENTED_EDGE('',*,*,#60,.T.);
#34=ORIENTED_EDGE('',*,*,#62,.F.);
#35=ORIENTED_EDGE('',*,*,#59,.T.);
#36=ORIENTED_EDGE('',*,*,#64,.F.);
#37=ORIENTED_EDGE('',*,*,#60,.F.);
#38=ORIENTED_EDGE('',*,*,#63,.F.);
#39=ORIENTED_EDGE('',*,*,#61,.T.);
#40=ORIENTED_EDGE('',*,*,#65,.F.);
#41=ORIENTED_EDGE('',*,*,#62,.T.);
#42=ORIENTED_EDGE('',*,*,#66,.T.);
#43=ORIENTED_EDGE('',*,*,#63,.T.);
#44=ORIENTED_EDGE('',*,*,#66,.F.);
#45=ORIENTED_EDGE('',*,*,#64,.T.);
#46=ORIENTED_EDGE('',*,*,#65,.T.);
#47=TOROIDAL_SURFACE('',#116,2.5,0.5);
#48=TOROIDAL_SURFACE('',#117,2.5,0.5);
#49=TOROIDAL_SURFACE('',#118,2.5,0.5);
#50=TOROIDAL_SURFACE('',#119,2.5,0.5);
#51=STYLED_ITEM('',(#52),#17);
#52=PRESENTATION_STYLE_ASSIGNMENT((#53));
#53=SURFACE_STYLE_USAGE(.BOTH.,#54);
#54=SURFACE_SIDE_STYLE('',(#55));
#55=SURFACE_STYLE_FILL_AREA(#56);
#56=FILL_AREA_STYLE('',(#57));
#57=FILL_AREA_STYLE_COLOUR('',#58);
#58=COLOUR_RGB('Colour',0.549019607843137,0.345098039215686,0.815686274509804);
#59=EDGE_CURVE('',#78,#77,#67,.T.);
#60=EDGE_CURVE('',#76,#75,#68,.T.);
#61=EDGE_CURVE('',#76,#78,#69,.T.);
#62=EDGE_CURVE('',#77,#75,#70,.T.);
#63=EDGE_CURVE('',#78,#76,#71,.T.);
#64=EDGE_CURVE('',#75,#77,#72,.T.);
#65=EDGE_CURVE('',#77,#78,#73,.T.);
#66=EDGE_CURVE('',#75,#76,#74,.T.);
#67=CIRCLE('',#108,2.);
#68=CIRCLE('',#109,3.);
#69=CIRCLE('',#110,0.5);
#70=CIRCLE('',#111,0.5);
#71=CIRCLE('',#112,0.5);
#72=CIRCLE('',#113,0.5);
#73=CIRCLE('',#114,2.);
#74=CIRCLE('',#115,3.);
#75=VERTEX_POINT('',#156);
#76=VERTEX_POINT('',#157);
#77=VERTEX_POINT('',#158);
#78=VERTEX_POINT('',#159);
#79=PRODUCT_CATEGORY_RELATIONSHIP('','',#83,#81);
#80=PRODUCT_CATEGORY_RELATIONSHIP('','',#84,#82);
#81=PRODUCT_RELATED_PRODUCT_CATEGORY('detail','',(#96));
#82=PRODUCT_RELATED_PRODUCT_CATEGORY('detail','',(#97));
#83=PRODUCT_CATEGORY('part','');
#84=PRODUCT_CATEGORY('part','');
#85=SHAPE_DEFINITION_REPRESENTATION(#87,#104);
#86=SHAPE_DEFINITION_REPRESENTATION(#88,#105);
#87=PRODUCT_DEFINITION_SHAPE('','Shape',#90);
#88=PRODUCT_DEFINITION_SHAPE('','Shape',#91);
#89=PRODUCT_DEFINITION_SHAPE('','',#12);
#90=PRODUCT_DEFINITION('','',#92,#94);
#91=PRODUCT_DEFINITION('','',#93,#95);
#92=PRODUCT_DEFINITION_FORMATION('','',#96);
#93=PRODUCT_DEFINITION_FORMATION('','',#97);
#94=PRODUCT_DEFINITION_CONTEXT('part definition',#102,'');
#95=PRODUCT_DEFINITION_CONTEXT('part definition',#103,'');
#96=PRODUCT('0393-30-18','0393-30-18','not specified',(#98));
#97=PRODUCT('0393-30-18','0393-30-18','not specified',(#99));
#98=PRODUCT_CONTEXT('',#102,'mechanical');
#99=PRODUCT_CONTEXT('',#103,'mechanical');
#100=APPLICATION_PROTOCOL_DEFINITION('Draft International Standard',
'automotive_design',1997,#102);
#101=APPLICATION_PROTOCOL_DEFINITION('Draft International Standard',
'automotive_design',1997,#103);
#102=APPLICATION_CONTEXT('automotive design');
#103=APPLICATION_CONTEXT('automotive design');
#104=SHAPE_REPRESENTATION('0393-30-18',(#106,#121),#174);
#105=SHAPE_REPRESENTATION('0393-30-18',(#107),#175);
#106=AXIS2_PLACEMENT_3D('',#154,#122,#123);
#107=AXIS2_PLACEMENT_3D('',#155,#124,#125);
#108=AXIS2_PLACEMENT_3D('',#160,#126,#127);
#109=AXIS2_PLACEMENT_3D('',#161,#128,#129);
#110=AXIS2_PLACEMENT_3D('',#162,#130,#131);
#111=AXIS2_PLACEMENT_3D('',#163,#132,#133);
#112=AXIS2_PLACEMENT_3D('',#164,#134,#135);
#113=AXIS2_PLACEMENT_3D('',#165,#136,#137);
#114=AXIS2_PLACEMENT_3D('',#166,#138,#139);
#115=AXIS2_PLACEMENT_3D('',#167,#140,#141);
#116=AXIS2_PLACEMENT_3D('',#168,#142,#143);
#117=AXIS2_PLACEMENT_3D('',#169,#144,#145);
#118=AXIS2_PLACEMENT_3D('',#170,#146,#147);
#119=AXIS2_PLACEMENT_3D('',#171,#148,#149);
#120=AXIS2_PLACEMENT_3D('',#172,#150,#151);
#121=AXIS2_PLACEMENT_3D('',#173,#152,#153);
#122=DIRECTION('',(0.,0.,1.));
#123=DIRECTION('',(1.,0.,0.));
#124=DIRECTION('',(0.,0.,1.));
#125=DIRECTION('',(1.,0.,0.));
#126=DIRECTION('',(1.,0.,0.));
#127=DIRECTION('',(0.,-1.,0.));
#128=DIRECTION('',(1.,0.,0.));
#129=DIRECTION('',(0.,-1.,0.));
#130=DIRECTION('',(0.,0.,-1.));
#131=DIRECTION('',(0.,-1.,0.));
#132=DIRECTION('',(0.,0.,-1.));
#133=DIRECTION('',(0.,-1.,0.));
#134=DIRECTION('',(0.,0.,-1.));
#135=DIRECTION('',(0.,1.,0.));
#136=DIRECTION('',(0.,0.,-1.));
#137=DIRECTION('',(0.,1.,0.));
#138=DIRECTION('',(1.,0.,0.));
#139=DIRECTION('',(0.,1.,0.));
#140=DIRECTION('',(1.,0.,0.));
#141=DIRECTION('',(0.,1.,0.));
#142=DIRECTION('',(1.,0.,0.));
#143=DIRECTION('',(0.,1.,0.));
#144=DIRECTION('',(1.,0.,0.));
#145=DIRECTION('',(0.,1.,0.));
#146=DIRECTION('',(1.,0.,0.));
#147=DIRECTION('',(0.,1.,0.));
#148=DIRECTION('',(1.,0.,0.));
#149=DIRECTION('',(0.,1.,0.));
#150=DIRECTION('',(0.,0.,1.));
#151=DIRECTION('',(1.,0.,0.));
#152=DIRECTION('',(0.,0.,1.));
#153=DIRECTION('',(1.,0.,0.));
#154=CARTESIAN_POINT('',(0.,0.,0.));
#155=CARTESIAN_POINT('',(0.,0.,0.));
#156=CARTESIAN_POINT('',(0.5,3.,0.));
#157=CARTESIAN_POINT('',(0.5,-3.,0.));
#158=CARTESIAN_POINT('',(0.5,2.,0.));
#159=CARTESIAN_POINT('',(0.5,-2.,0.));
#160=CARTESIAN_POINT('',(0.5,0.,0.));
#161=CARTESIAN_POINT('',(0.5,0.,0.));
#162=CARTESIAN_POINT('',(0.5,-2.5,0.));
#163=CARTESIAN_POINT('',(0.5,2.5,0.));
#164=CARTESIAN_POINT('',(0.5,-2.5,0.));
#165=CARTESIAN_POINT('',(0.5,2.5,0.));
#166=CARTESIAN_POINT('',(0.5,0.,0.));
#167=CARTESIAN_POINT('',(0.5,0.,0.));
#168=CARTESIAN_POINT('',(0.5,0.,0.));
#169=CARTESIAN_POINT('',(0.5,0.,0.));
#170=CARTESIAN_POINT('',(0.5,0.,0.));
#171=CARTESIAN_POINT('',(0.5,0.,0.));
#172=CARTESIAN_POINT('',(0.,0.,0.));
#173=CARTESIAN_POINT('',(0.,0.,0.));
#174=(
GEOMETRIC_REPRESENTATION_CONTEXT(3)
GLOBAL_UNCERTAINTY_ASSIGNED_CONTEXT((#177))
GLOBAL_UNIT_ASSIGNED_CONTEXT((#186,#183,#180))
REPRESENTATION_CONTEXT('','')
);
#175=(
GEOMETRIC_REPRESENTATION_CONTEXT(3)
GLOBAL_UNCERTAINTY_ASSIGNED_CONTEXT((#178))
GLOBAL_UNIT_ASSIGNED_CONTEXT((#187,#184,#181))
REPRESENTATION_CONTEXT('','')
);
#176=(
GEOMETRIC_REPRESENTATION_CONTEXT(3)
GLOBAL_UNCERTAINTY_ASSIGNED_CONTEXT((#179))
GLOBAL_UNIT_ASSIGNED_CONTEXT((#188,#185,#182))
REPRESENTATION_CONTEXT('','')
);
#177=UNCERTAINTY_MEASURE_WITH_UNIT(LENGTH_MEASURE(0.001),#186,'TOL_CRV',
'CONFUSED CURVE UNCERTAINTY');
#178=UNCERTAINTY_MEASURE_WITH_UNIT(LENGTH_MEASURE(0.001),#187,'TOL_CRV',
'CONFUSED CURVE UNCERTAINTY');
#179=UNCERTAINTY_MEASURE_WITH_UNIT(LENGTH_MEASURE(0.001),#188,'TOL_CRV',
'CONFUSED CURVE UNCERTAINTY');
#180=(
NAMED_UNIT(*)
SI_UNIT($,.STERADIAN.)
SOLID_ANGLE_UNIT()
);
#181=(
NAMED_UNIT(*)
SI_UNIT($,.STERADIAN.)
SOLID_ANGLE_UNIT()
);
#182=(
NAMED_UNIT(*)
SI_UNIT($,.STERADIAN.)
SOLID_ANGLE_UNIT()
);
#183=(
NAMED_UNIT(*)
PLANE_ANGLE_UNIT()
SI_UNIT($,.RADIAN.)
);
#184=(
NAMED_UNIT(*)
PLANE_ANGLE_UNIT()
SI_UNIT($,.RADIAN.)
);
#185=(
NAMED_UNIT(*)
PLANE_ANGLE_UNIT()
SI_UNIT($,.RADIAN.)
);
#186=(
LENGTH_UNIT()
NAMED_UNIT(*)
SI_UNIT(.MILLI.,.METRE.)
);
#187=(
LENGTH_UNIT()
NAMED_UNIT(*)
SI_UNIT(.MILLI.,.METRE.)
);
#188=(
LENGTH_UNIT()
NAMED_UNIT(*)
SI_UNIT(.MILLI.,.METRE.)
);
ENDSEC;
END-ISO-10303-21;
